>
 >
Calling You

Calling You Guitar Tabs

Buckley Jeff - Calling You chords, tabs, tablatures, lyrics

Guitar lessons | Add/correct | Request | Top 50 tabs Artists:  A B C D E F G H I J K L M N O P Q R S T U V W X Y Z 0-9

Calling You Guitar Tabs – Buckley Jeff

CD, Sheet music, Poster

Do you like Calling You? Share with your friends now
Tabs

Cheers,
James Gallichio


Calling You:


Fig. 1:
                                                               
E||-----------------1----|-----------------1----|-----------------1----|-----------------1----||
B||----------------------|----------------------|----------------------|----------------------||
G||-------2----3---------|-------2----3---------|-------2----3---------|-------2----3---------||
D||--0-------------------|--1-------------------|----------------------|----------------------||
A||----------------------|----------------------|----------------------|--3-------------------||
E||----------------------|----------------------|--3-------------------|----------------------||



Fig. 2:
                                           
E||-----------6------------|-----------5------------|
B||--------4---------------|--------6---------------|
G||-----5------------------|-----5------------------|
D||--4---------------------|------------------------|
A||------------------------|--6---------------------|
E||------------------------|------------------------|


                                                                  
--------------4------------|--------------3---|--------------6---|
----------6----------------|----------3-------|----------8-------|
------5--------------------|------4-----------|------7-----------|
---------------------------|------------------|------------------|
--5------------------------|------------------|--7---------------|
---------------------------|--3---------------|------------------|


                                                                            
--------------5---|--------------4---|--------------3---|
----------5-------|----------6-------|----------3-------|
------6-----------|------5-----------|------4-----------|
------------------|------------------|------------------|
------------------|--5---------------|------------------|
--5---------------|------------------|--3---------------|


For Figure 3, play this: (dont play in fig. 2)

----------------2-|--1----|--9-----9----9---|--8---|--x--|
-------------4----|--1----|--9-----9----9---|--8---|--x--|
---------3--------|--2----|--10----11---10--|--9---|--8--|
------------------|--3----|--11----11---11--|--10--|--7--|
---3--------------|--3----|--11----11---11--|--10--|--8--|
------------------|--1----|--9-----9----9---|--8---|--x--|


[u]Lyrics:[/u]

Verse (Fig. 1):
A desert road from Vegas to nowhere
Someplace better than where you`ve been
A coffe machine that needs some fixin`
In a little cafe just around the bend


Chorus (Fig. 2):
I am calling you
Can`t you hear me?
I am calling you

Verse (Fig. 1):
A hot dry wind blows right through me
The baby`s crying so I can`t sleep
But we both know the change is coming
Come in closer, sweet release


Chorus (Fig. 2 + 3):
I am calling you
Can`t you hear me?
I am calling you

Bridge:
Ohhhh ohhh ohhh (listen to it and you'll understand)

Chorus (Fig. 2):
I am calling you
Can't you hear me?
I am calling you

Verse (Fig. 1):
A desert road from Vegas to nowhere
Someplace better than where you`ve been
A coffe machine that needs some fixin`
In a little cafe just around the bend

Verse (Fig. 1):
A hot dry wind blows right through me
The baby`s crying so I can`t sleep
But we both know the change is coming
Come in closer, sweet release

Chorus (Fig. 2):
I am calling you
Can't you hear me?
I am calling you


The End. 'Tis quite an excellent song, I hope you enjoy it.





Comments


Popular Buckley Jeff tabs & chords
The Sky Is A Landfill Bass Tabs
Lilac Wine Chords
Yard Of Blonde Girls Chords
Dream Brother Tabs
Everybody Here Wants You 1 Tabs
Grace 1 Tabs
The Man That Got Away Tabs
Vancouver Tabs
We Could Be So Happy Baby Tabs
What Will You Say Tabs


Song lyrics



↑ Back to top | Tablatures and chords are parodies/interpretations of the original songs. You may use it for private study, scholarship, research or language learning purposes only
© 2014 AZChords.com Contact us | Privacy policy | DMCA | Add/correct tabs | Request tabs | Top 50 tabs