» » »

Broken Social Scene, 7/4 (Shoreline) Tabs (ver.1)

Artists:  A B C D E F G H I J K L M N O P Q R S T U V W X Y Z # 

7/4 (Shoreline) Tabs (ver.1)

Broken Social Scene Tabs
 Rating:
4/5 (4 votes)
7/4 (Shoreline) lessons Tabs too difficult? Try these video lessons and learn fast
                

        E A D G B E

E     --0-2-2-1-0-0--|
Esus2 --x-7-9-9-7-7--| or --x-7-9-9-0-0--|
Emaj9 --x-7-9-8-7-7--| or --x-7-9-8-0-0--|
A5    --5-7-7-x-x-x--|
A5/G# --4-7-7-x-x-x--|


 Intro:

       E -----------------|
       B -----------------|
       G -----------------|
Gtr 1  D -------------13--| x4
       A --11--12-11------|
       E -0---0------0----|


 (0:11)

       E ---------------------------------|
       B ---------------------------------|
       G ---------------------------------|
Gtr 1  D -------------13--------------13--| x5
       A --11--12-11-------11--12-11------|
       E -0---0------0----0---0------0----|

       E ----------------------------------------|
       B ----------------------------------------|
       G -8-------8---8h9-8----8-------8---8h9-8-|
Gtr 2  D -9-----9---9-------9--9-----9---9-------| x5
       A -7--7-----------------7--7--------------|
       E ----------------------------------------|



 (0:39)


Gtr 1     Esus2 Esus2 Esus2 Esus2
       E ---------------------------|
       B ---------------------------|
       G -8--8--8----8--8--9--8h9-8-|
Gtr 2  D -9--9--9----9--9--9--9-----| x8
       A -7--7--7----7--7--7--7-----|
       E -0--0--0----0--0--0--0-----|



 Verse: (1:00)

E --------------------------------------|
B --------------------------------------|
G --------------------------------------|
D --------------------------------------|
A --------------------------------------|
E --0-0-0----0h2-0h2--0-0--0-0--0h2-0-0-|
         It's a shoreline

E ----------------------------------------|
B ----------------------------------------|
G ----------------------------------------|
D ----------------------------------------|
A ----------------------------------------|
E --0-0-0----0h2-0h2/4--4-0--0-0--0h2-0-0-|
         And it's half speed

E -----------------------------------------|
B -----------------------------------------|
G -----------------------------------------|
D -----------------------------------------|
A ---------------------2-------------------|
E --0-0-0----0h2-0h2/4---0-0--0-0--0h2-0-0-|
         It's a cruel world

E -----------------------|
B -----------------------|
G -----------------------|
D -----------------------|
A ---------2/4-2---------|
E --0-0-0--------4-2-0-0-|
         And it's time



 Chorus 1: (1:23)

Esus2                     Emaj9
  And you're walking away
                 Esus2
But where to go to?
                     Emaj9
And you're walking alone,
                     Esus2
But how to get through?
Esus2                     Emaj9
  If you wanna get it right
                        Esus2
You can own what you choose
                        Emaj9
But you wanna live a lie
                   Esus2
And love what you lose



 (1:44)


Gtr 1     Esus2 Esus2 Esus2 Esus2
       E ---------------------------|
       B ---------------------------|
       G -8--8--8----8--8--9--8h9-8-|
Gtr 2  D -9--9--9----9--9--9--9-----| x4
       A -7--7--7----7--7--7--7-----|
       E -0--0--0----0--0--0--0-----|



 Verse: (1:55)

  Esus2                    Esus2
E --------------------------------------|
B --------------------------------------|
G --------------------------------------|
D --------------------------------------|
A --------------------------------------|
E --0-0-0----0h2-0h2--0-0--0-0--0h2-0-0-|
         It's a shoreline

  Esus2                    Esus2
E ----------------------------------------|
B ----------------------------------------|
G ----------------------------------------|
D ----------------------------------------|
A ----------------------------------------|
E --0-0-0----0h2-0h2/4--4-0--0-0--0h2-0-0-|
         And it's half speed

  Esus2                    Esus2
E -----------------------------------------|
B -----------------------------------------|
G -----------------------------------------|
D -----------------------------------------|
A ---------------------2-------------------|
E --0-0-0----0h2-0h2/4---0-0--0-0--0h2-0-0-|
         It's a cruel world

  Esus2                 Emaj9
E -----------------------|
B -----------------------|
G -----------------------|
D -----------------------|
A ---------2/4-2---------|
E --0-0-0--------4-2-0-0-|
         And it's time



 Chorus 2: (2:16)  [ Same as Chorus 1 ]

 While you're walking away
And I'm trying to get through
But you've gotta know their lies
 If you try to do it up
It all will leave you
If you try to steal the beat
The beat will steal you


 (2:37)

A5                          A5
It's coming It's coming in hard
A5                          A5
It's coming It's coming in hard
A5/G#                       A5/G#
It's coming It's coming in hard
A5/G#                       A5/G#
It's coming It's coming in hard
A5                          A5
It's coming It's coming in hard
A5                          A5
It's coming It's coming in hard
A5/G#                       A5/G#
It's coming It's coming in hard
A5/G#             A5/G#    A5
It's coming It's coming in-



 (3:12)

   Esus2  Esus2  Esus2   Emaj9 Esus2
E -7-7-7--7-5-4--4-2h4-4-5-4--|
B -0-0-0--0-0-0--0-0-0-0-0-0--| x2
G ----------------------------|
D ----------------------------|
A ----------------------------|
E ----------------------------|

   Esus2  Esus2  Esus2 Emaj9 Esus2
E --------------7--7/9-------|
B -7-9-7----7h9--------10-9--|
G -------9-------------------|
D ---------------------------|
A ---------------------------|
E ---------------------------|

   Esus2  Esus2  Esus2
E -7-7-7--7-5-4--7/14-|
B -0-0-0--0-0-0--0-0--|
G --------------------|
D --------------------|
A --------------------|
E --------------------|


 Verse (3:35)  [ Drums ]

E -------------------------------------0--|
B -------------------------------------0--|
G -------------------------------------9--|
D -------------------------------------8--|
A -------------------------------------7--|
E -------------------------------------0--|
It's a shoreline   And it's halfspeed

E ------------------------------------------|
B ------------------------------------------|
G ------------------------------------------|
D ------------------------------------------|
A ------------------------------------------|
E ------------------------------9r7-9r7-9-7-|
It's a cruel world   And it's time



 Outro: (3:55)

Esus2                       Esus2
It's coming It's coming in hard

 [ Repeat 7 more times ]


  Esus2  Esus2  Esus2  Esus2  Esus2
E -------------------------------|
B -------------------------------|
G -------------------------------|
D -9-9-9--9-7-6--4h6-4h6--2-2-2--| x4
A -------------------------------|
E -------------------------------|

E ------------------------------------|
B ------------------------------------|
G ------------------------------------|
D -9-9-9--9/11-7-6--4h6-4h6--2--2-(2)-| x2
A ------------------------------------|
E ------------------------------------|

 [ Ends with E ]
            
Submit corrections

comments powered by Disqus
↑ Back to top | Broken Social Scene Tabs for 7/4 (Shoreline). Lyrics for acoustic guitar and electric guitar. Tablatures and chords are parodies/interpretations of the original songs. You may use it for private study, scholarship, research or language learning purposes only