» » »

You Bring The Thunder And Ill Bring The Lightning Tabs (ver.1)

Artists:  A B C D E F G H I J K L M N O P Q R S T U V W X Y Z # 

You Bring The Thunder And Ill Bring The Lightning Tabs (ver.1)

Broadway
Rating:
0/5 (0 votes)

Hard to play? Try these video lessons and learn fast.
                There some parts that are probably wrong...but it sounds close to me!

Tuning: Drop D (d a d g b e)

Fading-in intro (:01-:06)
e|-----------|
B|-----------|
G|--14-------|
D|---x--12\--|
A|--12--12\--|
d|------12\--|


e|---------------------------------------|
B|----------------------------------6----|
G|-----------14---------------------9----|
D|-0-00-0-0---x--10-8-7---0-00-0-0-------|
A|-0-00-0-0--12--10-8-7---0-00-0-0-------|
d|-0-00-0-0------10-8-7---0-00-0-0-------|
   * ** * *		  * ** * *
e|---------------------------------------------------------------------------|
B|----------------------------------6--------------------------------------6-|
G|-----------14---------------------9------------14\12---------------------9-|
D|-0-00-0-0---x--10-8-7---0-00-0-0-----0-00-0-0---x\-x--10-8-7---0-00-0-0----|(x2)
A|-0-00-0-0--12--10-8-7---0-00-0-0-----0-00-0-0--12\10--10-8-7---0-00-0-0----|
d|-0-00-0-0------10-8-7---0-00-0-0-----0-00-0-0---------10-8-7---0-00-0-0----|
   * ** * *		  * ** * *     * ** * *		         * ** * *
(:27-:38) Guitar 1
e|-------------------------|
B|-------------------------|
G|-7~---5~---3~---5~---6~--|
D|-x~---x~---x~---x~---x~--|
A|-5~---3~---1~---3~---4~--|
d|-------------------------|

(:27-:38) Guitar 2
e|-----------------------------|
B|-----------------------------|
G|-----------------------------|
D|-0~---10~---8~---10~---11~\--|
A|-0~---10~---8~---10~---11~\--|
d|-0~---10~---8~---10~---11~\--|

If only the heart could...
Not 100% percent sure on this part but it sounds close
(:39-:58)
e|--------------------------------------------------------|
B|--------------------------------------------------------|
G|------------------10--------12---------14---------------|
D|-0-0-----0-0-------8-8------10-10------11-11------------|
A|-0-0(x12)0-0(x12)--8-8(x12)-10-10(x12)-11-11(x12)-------|
d|-0-0-----0-0-------8-8------10-10------11-11------------|
     *	    *	       *         *          *
(:59-1:09)
e|------|  |-----|
B|------|  |-----|
G|------|  |-----|
D|-0~~--|x4|-11\-|
A|-0~~--|  |-11\-|
d|-0~~--|  |-11\-|

Chorus (1:10-1:31)
Guitar 1
e|--------------------------------------------------------------------------|
B|--------------------------------------------------------------------------|
G|--------------------------------------------------------------------------|
D|-8---------------------------------000-000-000-000--3---3--000-000-000-000|(x2)
A|-8(x12)-8-10-7-8-5-7-3-5-----------000-000-000-000----7----000-000-000-000|
d|-8---------------------------------000-000-000-000---------000-000-000-000|
                                     *** *** *** ***         *** *** *** ***
Guitar 2
e|------------------------------------------------------------------|
B|------------------------------------------------------------------|
G|-3------5-3------------------------------5----5-------------------|
D|-x(x12)-----3-5-2-3-----000-000-000-000----3-----000-000-000-000--|(x2)
A|-1------------------3-5-000-000-000-000----------000-000-000-000--|
d|------------------------000-000-000-000----------000-000-000-000--|
			  *** *** *** ***	   *** *** *** ***
Your down on all counts...
(nice little break)

Then...
Guitar 1 (1:53-1:57)
e|---------------------------------------|
B|---------------------------------------|
G|---------------------------------------|
D|-0------------2~-----------------------|
A|-0-5-3-2--5-3-2~-----------------------|
d|-0--------5-3-2~-----------------------|

Guitar 2 does some harmonics, but I don’t know too much about harmonics!

Chorus x2

Solo (2:18-2:39) guitar 1
Haha this is not the perfect solo tab haha! This is just like the very basic structure 
the solo. I know like 60% of it isn’t right, ha but it sounds pretty close

e|-------------------------------------------------------------------------------------|
B|-15b~-15b~-15b~-15b~-15b~------------------------------------------------------------|
G|-17b~-17b~-17b~-17b~-17b~--17-15-12/13sb~10sb~~--------------------------------------|
D|-------------------------------------------------9h10-7-10-5-------------------------|
A|-------------------------------------------------------------9h10-5h7-9h10-7b~-------|
d|-------------------------------------------------------------------------------------|

e|--14-12-------------------------------------------------|
B|-------14-12--------------------------------------------|
G|------------13-11---------------------------------------|
d|-----------------13-11------------10/12b-12b-12b~-------|
A|----------------------14-12-10-12-----------------------|
d|--------------------------------------------------------|

e|----13------13-------13------13-------|----12------12-------12------12-------|
B|------15-15----15-15---15-15---15-15--|------15-15----15-15---15-15---15-15--|
G|--------------------------------------|--------------------------------------|
D|--------------------------------------|--------------------------------------|
A|--------------------------------------|--------------------------------------|
D|--------------------------------------|--------------------------------------|

During the solo, Guitar 2 plays the chorus twice.
Ill let karma take...(2:40-2:51)
e|-----------|-----------|
B|--------4--|-------10--|
G|--------7--|-------13--|
D|-00-000----|-00-000----|
A|-00-000----|-00-000----|
d|-00-000----|-00-000----|
   ** ***      ** ***
(2:51) nice little interlude
e|--------------------|
B|--------------------|
G|-10---7---9---------|
D|--x---x---x---------|
A|--8---5---7---------|
D|--------------------|
Figure out the strumming pattern

Outro
Meanwhile, Ill be trying my best... (3:12-end)
e|--------------------|
B|--------------------|
G|--------------------|
D|-0--3--8--7--10-----|
A|-0--3--8--7--10-----|
D|-0--3--8--7--10-----|
 Those are the last chords for the song. Just
Figure out the strumming pattern.
            
Hard to play? Try these video lessons and learn fast. | Correct




comments powered by Disqus
↑ Back to top | Tablatures and chords are parodies/interpretations of the original songs. You may use it for private study, scholarship, research or language learning purposes only