» » »

Bowl Of Oranges Bass tabs (ver.1)

Artists:  A B C D E F G H I J K L M N O P Q R S T U V W X Y Z # 

Bowl Of Oranges Bass tabs (ver.1)

Bright Eyes
Rating:
5/5 (3 votes)

Hard to play? Try these video lessons and learn fast.
                -------------------------------------------------------------------------------
-------------------------------------------------------------------------------


Tuning: standard

Verse: "the rain it started tapping..."
G|---------------------------------------------------------------------------|
D|----2-5-------------------------------2-5-----3-2--0-0-0h3-0h3-----3-2-0-2-|
A|3-3---------5-2------3-------3--3-0-0------------3-------------------------|   x2
E|--------3-3----3-1-1---1-3-3---3----------1-1------------------3-3---------|

G|-------------------------------------------------------------------|
D|----2-5-------------------------------2-5-----3-2--0-0-0h3-0h3-----|
A|3-3---------5-2------3-------3--3-0-0------------3-----------------|   x1
E|--------3-3----3-1-1---1-3-3---3----------1-1------------------3-3-|

Chorus: "he said i think im cured..."
G|-------------------------------------------|
D|3-2---------3-2---------3-2----------------|
A|----0-0-0-0-----0-0-0-0-----0-0-0-0-5-5-5-5| x1
E|-------------------------------------------|

Pre-verse: 
G|---------------------------------------------------------------------------|
D|----2-5-------------------------------2-5-----3-2--0-0-0h3-0h3-----3-2-0-2-|
A|3-3---------5-2------3-------3--3-0-0------------3-------------------------|   x1
E|--------3-3----3-1-1---1-3-3---3----------1-1------------------3-3---------|

Verse: "so that's how i learned the lesson..."
G|---------------------------------------------------------------------------|
D|----2-5-------------------------------2-5-----3-2--0-0-0h3-0h3-----3-2-0-2-|
A|3-3---------5-2------3-------3--3-0-0------------3-------------------------|   x2
E|--------3-3----3-1-1---1-3-3---3----------1-1------------------3-3---------|

G|-------------------------------------------------------------------|
D|----2-5-------------------------------2-5-----3-2--0-0-0h3-0h3-----|
A|3-3---------5-2------3-------3--3-0-0------------3-----------------|   x1
E|--------3-3----3-1-1---1-3-3---3----------1-1------------------3-3-|

Chorus: "at our still lives posed..."
G|---------------------------------------------------|
D|3-2---------3-2---------3-2------------------------|
A|----0-0-0-0-----0-0-0-0-----0-0-0-0-5-5-5-5-3-3-3-3| x1
E|---------------------------------------------------|

Outro: 
G|----------------------------------------------------------------------------|
D|----2-5-------------------------------2-5-----3-2--0-0-0h3-0h3-----3-2-0-2--|
A|3-3---------5-2------3-------3--3-0-0------------3-------------------------3|   x1
E|--------3-3----3-1-1---1-3-3---3----------1-1------------------3-3----------|


| h = hammer on
===============================================================================
            
Hard to play? Try these video lessons and learn fast. | Correct




comments powered by Disqus
↑ Back to top | Tablatures and chords are parodies/interpretations of the original songs. You may use it for private study, scholarship, research or language learning purposes only