» » »

Back To Higher Ground Tabs (ver.2)

Artists:  A B C D E F G H I J K L M N O P Q R S T U V W X Y Z # 

Back To Higher Ground Tabs (ver.2)

Briggs
Rating:
5/5 (2 votes)

Hard to play? Try these video lessons and learn fast.
                Album:Back to higher ground

Alright, I just saw the Briggs at warped a few days ago,
so i decided it would be a good time to tab this song out,
since its probably my favorite song off of the new album.
Hopefully its all right, im pretty sure the intro is
cause thats how Jason played it live. Well, have fun, its
really not a hard song, but fun to play.

Intro (x2)
(guitar 2 just plays the chorus part)

e--------------------------------------------I-------------|
b--------------------------------------------I-------------|
g--------------------------------------------I-------------|
d--------------------------------------------I-------------|
a---/8--6--4-44-----------/9--8--6---4-------I----/8--6----|
e----------------6--4--2---------------6-4---I-4-----------|
                                            (first time only)

Verse (x2)
"I'm introduced to a plague of ignorance..."

e--------------------------I--------------------------|
b--------------------------I--------------------------|
g--6-66666-----------------I--------------------------|
d--6-66666--6-66666---(x3)-I---4-44-4-44-6-66-6-66----|
a--4-44444--6-66666--------I---4-44-4-44-6-66-6-66----|
e-----------4-44444--------I---2-22-2-22-4-44-4-44----|
 pm  .....    .....              ..   ..   ..

Chorus
"Back to higher ground, reachin up we won't back down..."

e----------------------------I------------------------|
b----------------------------I------------------------|
g--6666------8888------------I------------------------|
d--6666-4444-8888-6666--(x2)-I--4~---4-44--6~---xx-x--|
a--4444-4444-6666-6666-------I--4~---4-44--6~---xx-x--|
e-------2222------4444-------I--2~---2-22--4~---xx-x--|


Verse (x2)

Chorus

Intro/Solo (the solo is pretty much just a variation
            of the intro, so you can just play whatever
            you want here)

Bridge
"Dancin on their grave, to the sound of savage victory..."

e---------------------------------------------|
b---------------------------------------------|
g---------------------------------------------|
d---------------------------4444--6666--------|
a---4~--6~--4~--6~--4~--6~--4444--6666--------|
e---------------------------2222--4444--------|

"Sing a song of freedom, pay homage to the fathers,"
e---------------------|
b---------------------|
g--66666666-----------|
d--66666666-6---------|
a--44444444-6---------|
e-----------4---------|

"That paved the way for sonic, liberty,"
e---------------------|
b---------------------|
g--66666666-----------|
d--66666666--6-xx-xx--|
a--44444444--6-xx-xx--|
e------------4-xx-xx--|

"A note that rings so true in all of us,"
e---------------------|
b---------------------|
g--66666666-----------|
d--66666666--66666666-|
a--44444444--66666666-|
e------------44444444-|

"We can't regress, we can't regress!"
e---------------------|
b---------------------|
g---------------------|
d--4~------6----------|
a--4~------6----------|
e--2~------4----------|


Chorus (x4) Don't play the extra chords at the end
            where he repeats "Back, to higher ground"

End on
e--------|
b--------|
g--------|
d---4~---|
a---4~---|
e---2~---|
            
Hard to play? Try these video lessons and learn fast. | Correct




comments powered by Disqus
↑ Back to top | Tablatures and chords are parodies/interpretations of the original songs. You may use it for private study, scholarship, research or language learning purposes only