>
 >
La Ultima Hora 2

La Ultima Hora 2 Guitar Tabs

Breed 77 - La Ultima Hora 2 chords, tabs, tablatures, lyrics

Guitar lessons | Add/correct | Request | Top 50 tabs Artists:  A B C D E F G H I J K L M N O P Q R S T U V W X Y Z 0-9

La Ultima Hora 2 Guitar Tabs – Breed 77

CD, Sheet music, Poster

Do you like La Ultima Hora 2? Share with your friends now
TabsTabs v2Tabs v3
Tuning : C G C F A D

All the parts you should need are here. Just listen to the song to
get a feel for the actual rhythm. Not entirely sure of the accuracy
but play around with it. Pretty sure the solo is spot on.

PH = Pitch Harmonic
h = Hammer On
p = Pull Off
s = Slide


Intro (Clean) : 
D|----------------------------------------------------------------
A|----------------------------------------------------------------
F|7-77-7--7b8r7---7-77-77-7-7-----7---5---4---5---7-77-77-7-7-----
C|x-xx-x--x-x-x---x-xx-xx-x-x-----x---x---x---x---x-xx-xx-x-x-----
G|5-55-7--5b6r5---5-55-55-5-5-----5---3---2---3---5-55-55-5-5-----
C|----------------------------------------------------------------

Intro (Distortion) : 
D|----------------------------------------------------------------
A|----------------------------------------------------------------
F|7-7-7---7b8x7-7-7-7-7---7b8x7-7-7-7-7---7b8x7-7-5-5-5---8-8-8---
C|x-x-x---x-x-x-x-x-x-x---x-x-x-x-x-x-x---x-x-x-x x-x-x---x-x-x---
G|5-5-5---5b6r5-5-5-5-5---5b6r5-5-5-5-5---5b6r5-5-3-3-3---6-6-6---
C|--------0-0-------------0-0-------------0-0--------------------- 

Prechorus (Distortion) : 
D|----------------------------------------------------------------
A|----------------------------------------------------------------
F|----------------------------------------------------------------
C|--------5PH-------------5PH-------------------------------------
G|3---------------3---------------5---------------5---------------
C|----------------------------------------0---------------0-------

Chorus (Distortion) :
D|------------------------------------------------
A|------------------------------------------------
F|------------------------------------------------
C|7-7-7-7-7-7-7-7-7-7-7-7-3-3-3-3-3-3-5-5-5-5-3-5-
G|5-5-5-5-5-5-5-5-5-5-5-5-1-1-1-1-1-1-5-5-5-5-1-3-
C|------0-----------0-----------------5-5-5-5-----

Solo (Distortion) :
D|-----------------------------------------------------------
A|-----------------------------------------------------------
F|-----------------------------------------------------------
C|7~----7~-------7b8-8-8r7-5----7~---7~-------------5-10-7---
G|---------------------------------------------5-6-8---------
C|-----------------------------------------------------------

D|-----------------------------------------------------------
A|-----------------------------------------------------------
F|-----------------------------------------------------------
C|8~----8~-------8h10-10-10-8-7-8~---8~-------------5-7-10---
G|---------------------------------------------5-6-8---------
C|-----------------------------------------------------------


D|-----------------------------------------------------------
A|-----------------------------------------------------------
F|8~-------------14b15-15r14p12h14-14p12p11h12-13p12--7------
C|-----------------------------------------------------------
G|-----------------------------------------------------------
C|-----------------------------------------------------------

D|----------------------
A|----------------------
F|7----12---12---7s0----
C|7----12---12---7s0----
G|----------------------
C|----------------------

Finish On:
D|---------------
A|---------------
F|---------------
C|0-0--1-1-11-0--
G|0-0--1-1-11-0--
C|0-0--1-1-11-0--





Comments


Popular Breed 77 tabs & chords
Individuo Bass Tabs
The River Bass Tabs
Alive Chords
The River Chords
Final Prayer Tabs
Individuo Tabs
La Ultima Hora The Final Hour Tabs
The River 1 Tabs
Zombie Tabs
The River Ukulele


Song lyrics



↑ Back to top | Tablatures and chords are parodies/interpretations of the original songs. You may use it for private study, scholarship, research or language learning purposes only
© 2014 AZChords.com Contact us | Privacy policy | DMCA | Add/correct tabs | Request tabs | Top 50 tabs