» » »

Breaking Benjamin, Polyamorus Tabs (ver.1)

Artists:  A B C D E F G H I J K L M N O P Q R S T U V W X Y Z # 

Polyamorus Tabs (ver.1)

Breaking Benjamin Tabs
 Rating:
4/5 (4 votes)
Polyamorus lessons Tabs too difficult? Try these video lessons and learn fast
1
                

THIS IS THE BEST TAB I'VE EVER DONE. I SPENT 3 HOURS GETTING EVERY SINGLE
NOTE AND IT WASN'T EASY..BEST SONG EVER..........ENJOY*

**************Tunning = Db, Ab, Db, Gb, Bb, Eb**********************

palm mute     = .......
hammer on     = h
pull off      = p
let note ring = ~


Intro     (with effects)
e|-------------------------------|
B|-------------------------------|
G|-------------------------------|
D|-9~-------5~-------9~-------5~-|
A|-9~-------5~-------9~-------5~-|
E|-9~-------5~-------9~-------5~-|

e|----------------------------|
B|----------------------------|
G|----------------------------|
D|-9-9-9--9-0-0--0-5-5--0-5-5-|
A|-9-9-9--9-0-0--0-5-5--0-5-5-| x4
E|-9-9-9--9-0-0--0-5-5--0-5-5-|

e|-------------------------------------------------------------|
B|-------------------------------------------------------------|
G|-------------------------------------------------------------|
D|-0-0-----------9-9-------------0-0-----------9-9-------------|
A|-0-0-10-10-9-9-9-9-12-12-10-10-0-0-10-10-9-9-9-9-12-12-10-10-| x2
E|-0-0-----------9-9-------------0-0-----------9-9-------------|
pm . .           . .             . .           . .

Verse
e|---------------------------------------------------------|
B|---------------------------------------------------------|
G|---------------------------------------------------------|
D|-9-9-----------0-0-----------5-5-----------4-4-----------|
A|-9-9-10-10-9-9-0-0-10-10-9-9-5-5-9-9-10-10-4-4-10-10-9-9-| x3
E|-9-9-----------0-0-----------5-5-----------4-4-----------|
pm . . .. .. . . . . .. .. . . . . . . .. .. . . .. .. . .

e|---------------------------------------------------|
B|---------------------------------------------------|
G|---------------------------------------------------|
D|-9-9-----------0-0-----------5-5-----------5-0-5-4-|
A|-9-9-10-10-9-9-0-0-10-10-9-9-5-5-9-9-10-10-5-0-5-4-| 
E|-9-9-----------0-0-----------5-5-----------5-0-5-4-|
pm . . .. .. . . . . .. .. . . . . . . .. .. . . .

Pre-Chorus
e|---------------------------------------------------------------------------|
B|---------------------------------------------------------------------------|
G|---------------------------------------------------------------------------|
D|-0---7---5-5h7-5h7---0---7---5-5h7-5h7---0---7---5-555---0---4---5---4h5p4-|
A|-0---7---5-5h7-5h7---0---7---5-5h7-5h7---0---7---5-555---0---4---5---4h5p4-| 
E|-0---7---5-5h7-5h7---0---7---5-5h7-5h7---0---7---5-555---0---4---5---4h5p4-|
pm                                                   ...

Intro
e|-------------------------------------------------------------|
B|-------------------------------------------------------------|
G|-------------------------------------------------------------|
D|-0-0-----------9-9-------------0-0-----------9-9-------------|
A|-0-0-10-10-9-9-9-9-12-12-10-10-0-0-10-10-9-9-9-9-12-12-10-10-|
E|-0-0-----------9-9-------------0-0-----------9-9-------------|
pm . .           . .             . .           . .

Verse
e|---------------------------------------------------------|
B|---------------------------------------------------------|
G|---------------------------------------------------------|
D|-9-9-----------0-0-----------5-5-----------4-4-----------|
A|-9-9-10-10-9-9-0-0-10-10-9-9-5-5-9-9-10-10-4-4-10-10-9-9-| x3
E|-9-9-----------0-0-----------5-5-----------4-4-----------|
pm . . .. .. . . . . .. .. . . . . . . .. .. . . .. .. . .

e|---------------------------------------------------|
B|---------------------------------------------------|
G|---------------------------------------------------|
D|-9-9-----------0-0-----------5-5-----------5-0-5-4-|
A|-9-9-10-10-9-9-0-0-10-10-9-9-5-5-9-9-10-10-5-0-5-4-| 
E|-9-9-----------0-0-----------5-5-----------5-0-5-4-|
pm . . .. .. . . . . .. .. . . . . . . .. .. . . .

Pre-Chorus
e|---------------------------------------------------------------------------|
B|---------------------------------------------------------------------------|
G|---------------------------------------------------------------------------|
D|-0---7---5-5h7-5h7---0---7---5-5h7-5h7---0---7---5-555---0---4---5---4h5p4-|
A|-0---7---5-5h7-5h7---0---7---5-5h7-5h7---0---7---5-555---0---4---5---4h5p4-| x2 
E|-0---7---5-5h7-5h7---0---7---5-5h7-5h7---0---7---5-555---0---4---5---4h5p4-|
pm                                                   ...

Breakdown
e|--------------------------------------------------------------------|
B|--------------------------------------------------------------------|
G|-444444444/666/777/666666/777/6666/7777777777/666/444444444/777/666-|
D|-xxxxxxxxx/xxx/xxx/xxxxxx/xxx/xxxx/xxxxxxxxxx/xxx/xxxxxxxxx/xxx/666-|
A|-222222222/444/555/444444/555/4444/5555555555/444/222222222/555/444-| x2
E|--------------------------------------------------------------------|

e|-----------------------------------------------------------------------------|
B|-----------------------------------------------------------------------------|
G|-----------------------------------------------------------------------------|
D|-99999/11-11/12-12/11-11-11/12-12/11-11/12-12-12-12/11-11/999999/12-12/11-11-|
A|-99999/11-11/12-12/11-11-11/12-12/11-11/12-12-12-12/11-11/999999/12-12/11-11-| 
E|-99999/11-11/12-12/11-11-11/12-12/11-11/12-12-12-12/11-11/999999/12-12/11-11-|
pm ...........................................................................

e|-----------------------------------------------------------------------------|
B|-----------------------------------------------------------------------------|
G|-----------------------------------------------------------------------------|
D|-99999/11-11/12-12/11-11-11/12-12/11-11/12-12-12-12/11-11/999999/12-12/11-11-|
A|-99999/11-11/12-12/11-11-11/12-12/11-11/12-12-12-12/11-11/999999/12-12/11-11-| 
E|-99999/11-11/12-12/11-11-11/12-12/11-11/12-12-12-12/11-11/999999/12-12/11-11-|

(listen to the song for the rythm of it)
e|-----------------------------------|
B|-----------------------------------|
G|-----------------------------------|
D|-0-0--000--0-0--000--0-0--000--0-0-|
A|-0-0--000--0-0--000--0-0--000--0-0-|
E|-0-0--000--0-0--000--0-0--000--0-0-|

Pre-Chorus
e|---------------------------------------------------------------------------|
B|---------------------------------------------------------------------------|
G|---------------------------------------------------------------------------|
D|-0---7---5-5h7-5h7---0---7---5-5h7-5h7---0---7---5-555---0---4---5---4h5p4-|
A|-0---7---5-5h7-5h7---0---7---5-5h7-5h7---0---7---5-555---0---4---5---4h5p4-| x2
E|-0---7---5-5h7-5h7---0---7---5-5h7-5h7---0---7---5-555---0---4---5---4h5p4-|
pm                                                   ...

e|-------------------------------------------------------------------|
B|-------------------------------------------------------------------|
G|-------------------------------------------------------------------|
D|-0---4---5-555---0---4---5-4h5p4---0---4---5-555---0---4---5-4h5p4-|
A|-0---4---5-555---0---4---5-4h5p4---0---4---5-555---0---4---5-4h5p4-| x2
E|-0---4---5-555---0---4---5-4h5p4---0---4---5-555---0---4---5-4h5p4-|
pm           ...                               ...

Intro
e|-----------------------------------------------|
B|-----------------------------------------------|
G|-----------------------------------------------|
D|-0-0-----------9-9-------------0-0-----------0-|
A|-0-0-10-10-9-9-9-9-12-12-10-10-0-0-10-10-9-9-0-| 
E|-0-0-----------9-9-------------0-0-----------0-|
pm . .           . .             . .
            
Submit corrections

comments powered by Disqus
↑ Back to top | Breaking Benjamin Tabs for Polyamorus. Lyrics for acoustic guitar and electric guitar. 1 Tablatures and chords are parodies/interpretations of the original songs. You may use it for private study, scholarship, research or language learning purposes only