» » »

Breaking Benjamin, Natural Life Tabs (ver.1)

Artists:  A B C D E F G H I J K L M N O P Q R S T U V W X Y Z # 

Natural Life Tabs (ver.1)

Breaking Benjamin Tabs
 Rating:
4/5 (4 votes)
Natural Life lessons Tabs too difficult? Try these video lessons and learn fast
                Breaking Benjamin




DADGBE Standard D Tuning

These are clusters of the songs tablature im sorry but some of the
rest of the song is pretty hard.. well at least i tried.
Well if theres anyone else who would want to complete these please do.


These are not the exact sequence so listen to the song okay people


(Intro)
|-------------------------------------|
|-------------------------------------|
|-------------------------------------|
|-------------------------------------|
|-------------------------------------|
|-0-0-0-0-0-3-0-3-0-0-0-0-0-0-3-0-3-0-|

|-----------------------------------------|
|-----------------------------------------|
|-----------------------------------------|
|-0-0-0-0-0-*3-0-*3-0-0-0-0-0-0-*3-0-*3-0-|
|-0-0-0-0-0-*3-0-*3-0-0-0-0-0-0-*3-0-*3-0-|
|-0-0-0-0-0-*3-0-*3-0-0-0-0-0-0-*3-0-*3-0-|



Verse
|---------------|
|---------------|
|---------------|
|---------------|
|-------5-0-7-0-|
|-0-3-0---------|


Chorus
|--------------------------|
|--------------------------|
|-----------------10-9-4-5-|
|-3-3-3-3-7-7-7-7--x-x-x-x-|
|-3-3-3-3-7-7-7-7--8-7-2-3-|
|-3-3-3-3-7-7-7-7----------|




|------|
|-4-/5-|
|------|
|------|
|------|
|------|




Solo
|---------------------------------------------------------|
|---------------------------------------------------------|
|---------------------------------------------------------|
|---------------------5-0-2-0-------3-0-----------2-0-----|
|-------5-0-7-0-------------------------5-0-----------3-0-|
|-0-3-0---------0-3-0---------0-3-0---------0-3-0---------|
            
Submit corrections

comments powered by Disqus
↑ Back to top | Breaking Benjamin Tabs for Natural Life. Lyrics for acoustic guitar and electric guitar. Tablatures and chords are parodies/interpretations of the original songs. You may use it for private study, scholarship, research or language learning purposes only