» » »

Brainstorm, Maybe Bass tabs (ver.2)

Artists:  A B C D E F G H I J K L M N O P Q R S T U V W X Y Z # 

Maybe Bass tabs (ver.2)

Brainstorm Tabs
 Rating:
4/5 (4 votes)
Maybe lessons Tabs too difficult? Try these video lessons and learn fast
1
                BRAINSTORM
 *MAYBE*


NORMAL TUNING , EADG

x = ghost note
r = rest
\ = slide down
||: = repeat 

INTRO
|---------------------------------------------------------------
|-----------------------------------------------7-r-7-r-7-7--7--
|-5/7--7-7-7--7-7-r-7-r-7-5-------5/7--7-7-7--7-----------------
|---------------------------8-7-5-------------------------------
       x x                             x x              x

-----------------------------------------|
-----------------------------------------|
-----------------------------------------|
--7--7-7-7---\-2-r-2-2-r-2-2-r-2-2--2--r-|
     x x           x           x

Verse
||-----------------------------------------------------------------
||:----------------------------------------------------------7-----
||:-5/7--7-7-7--7-7-r-7-r-7-5-------5/7--7-7-7-r-------------------
||----------------------------8-7-5--------------7-5-r-5-r-5----5--
         x x                             x x

------------------------------------------||
-----------------------------------------:||
-----------------------------------------:||
--7--7-7-7---\-2-r-2-2-r-2-2-r-2-2--2--r--||
     x x           x           x

Chorus
|-----------------------------------------------------
|---------------------7-------------------------------
|-5/7--7-7--7-7r7-r-7------5--5-5--5-5-r-5--5-5-0-5-6-
|-----------------------------------------------------
       x    x                 x    x        x

--------------------7-------------------------------------------------
--7--7-7--7-7r7-r-7------5--5-5-r-5-r-5-r-5-5-5-5-6-7-7-7-7-r-7-7--r--
     x    x       x         x             x x

------------------------------------------------|
------------------------------------------------|
-------------------2--------2-------------------|
--0-0-0-0--r--2------------------5----3----1----|


no name
|---------------------------------------------------------------
|----------------------------------------------------------7----
|-5/7--7-7-7--7-7-r-7-r-7-5-------5/7--7-7-7-r------------------
|---------------------------8-7-5--------------7-5-r-5-r-5------
       x x                             x x           x            

---------------------------|
---------------------------|
---------------------------|
--7--7-7-7-r-7-7-r-7-7--7--|
     x x           x    

Verse
chorus

Verse (only instruments and it comes only one time)
|----------------------------------------------------------------
|----------------------------------------------------------7-----
|-5/7--7-7-7--7-7-r-7-r-7-5-------5/7--7-7-7-r-------------------
|---------------------------8-7-5--------------7-5-r-5-r-5----5--
       x x                             x x

---------------------------------------|
---------------------------------------|
------------------------------------5--|
--7--7-7-7---\-2-r-2-2-r-2-2-r--7-8----|
     x x           x           

play 'Chorus'
play 'no name'
the end is same as the verse
            
Submit corrections

comments powered by Disqus
↑ Back to top | Brainstorm Bass for Maybe. Lyrics for acoustic guitar and electric guitar. 1 Tablatures and chords are parodies/interpretations of the original songs. You may use it for private study, scholarship, research or language learning purposes only