» » »

(10) And Counting Tabs (ver.1)

Artists:  A B C D E F G H I J K L M N O P Q R S T U V W X Y Z # 

(10) And Counting Tabs (ver.1)

Boy Sets Fire
Rating:
0/5 (0 votes)

Hard to play? Try these video lessons and learn fast.
                Standart Tuning

This song is track 5 on the new boysetsfire album "The Misery Index". 
My guitar-teacher tabbed out the important parts..


  Intro/Strophe:

      Hb    A/F    F   Hb  F   Hb
E|--------------------------------------------------------|
B|----3------1-----6---5---6---5---3----------------------|
G|----3------2-----5---3---5---3---3----------------------|
D|----3------3-----3---3---3---3---3----------------------|
A|----1------0--------------------------------------------|
E|--------------------------------------------------------|


  Refrain:

     F     E/F   D   C   Hb
E|--------------------------------------------------------|
B|---------------3---3---3--------------------------------|
G|---10----10----2---0---3--------------------------------|
D|---10----10----0---2---3--------------------------------|
A|---8-----7---------3---1--------------------------------|
E|--------------------------------------------------------|

Have fun!
            
Hard to play? Try these video lessons and learn fast. | Correct




comments powered by Disqus
↑ Back to top | Tablatures and chords are parodies/interpretations of the original songs. You may use it for private study, scholarship, research or language learning purposes only