» » »

Make Me Pure Bass tabs (ver.2)

Artists:  A B C D E F G H I J K L M N O P Q R S T U V W X Y Z # 

Make Me Pure Bass tabs (ver.2)

Boy Hits Car
Rating:
0/5 (0 votes)

Hard to play? Try these video lessons and learn fast.
                Boy Hits Car – ‘make me pure’

Figured I better tab this song, as everyone else seems to have got it WRONG!!!!

G]--------9------9---------------9--------11-----]
D]----11----11----11---------11-------11-----11--]
A]--9---------------------9----------------------]
E]-----------------------------------------------]

G]-----------------------------------------------]
D]-------7-----7--------------7-------9----------]
A]----9-----9----9--------9-------9-------9------]
E]-7-------------------7-------------------------]

G]-----------------------------------------------]
D]-----------------------------------------------]
A]-9---9--9---9/7--7-7---9---9---9---9/7--7--7---]
E]-----------------------------------------------]
            
Hard to play? Try these video lessons and learn fast. | Correct




comments powered by Disqus
↑ Back to top | Tablatures and chords are parodies/interpretations of the original songs. You may use it for private study, scholarship, research or language learning purposes only