» » »

Benkei Bass tabs (ver.2)

Artists:  A B C D E F G H I J K L M N O P Q R S T U V W X Y Z # 

Benkei Bass tabs (ver.2)

Boy Hits Car
Rating:
0/5 (0 votes)

Hard to play? Try these video lessons and learn fast.
                Boy Hits Car - Benkei

G|------------11---11-----11--------14-14-14-----|
D|-12-12-12------------12-----12-----------------|
A|-----------------------------------------------|
D|-----------------------------------------------|
(those are 11s, 12s and 14s)

G|--------------------------------------|
D|--------------------------------------|
A|--------------------3--0-3-0--3----5--|
D|--0---0-0-3---0-----------------------|

G|----------------------------------|
D|----------------------------------|
A|-----------------3-0h3p0---0h3p0--|
D|--0--0-0-3--0---------------------|

G|--------------------|-----------------------------|
D|--------------------|-----------------------------|
A|------------------5-|-----------------5-------5---|
D|-3-0-3-0-3-0-3-0-0--|----3-0-3-0-3----------------|

G|-----------------------------------|
D|-----------------------------------|
A|-----------------------------------|
D|--0--0--0-3--0-3---0--0--0-3--0-3--|

Listen to the song for the timing
            
Hard to play? Try these video lessons and learn fast. | Correct




comments powered by Disqus
↑ Back to top | Tablatures and chords are parodies/interpretations of the original songs. You may use it for private study, scholarship, research or language learning purposes only