» » »

Bon Jovi, Undivided Bass tabs (ver.1)

Artists:  A B C D E F G H I J K L M N O P Q R S T U V W X Y Z # 

Undivided Bass tabs (ver.1)

Bon Jovi Tabs
Rating:
0/5 (0 votes)
Undivided lessons Tabs too difficult? Try these video lessons and learn fast
                -----------------------------------------
BON JOVI
Undivided Bass Tab
-----------------------------------------

Standard tuning, use some distortion. Listen along, and feel free to add little
variations, as in the song. Bon Jovi Forever!!!

**************

VERSE
|---------------------------------------------------------------------|
|----0-0----3-3----0-0----3-3----0---3-3---0-0---3-3-------x2---------|
|---------------------------------------------------------------------|
|---------------------------------------------------------------------|

BRIDGE
For the 1st and 3rd bridge, play this whole thing, for the 2nd one, play just the 3’s. 
|---------------------------------------------|
|---------------------------------------------|
|--------------------------1-1-1-1-1-1-1-1----|
|--3-3-3-3-3-3-3-3----------------------------|
A million prayers..	   A million tears..

CHORUS
|---------------------------------------------------------------------|
|--0-0-0-0-0-0-0-0---------------------3-3-3-3-3-3-3-3----------------|
|------------------1-1-1-1-1-1-1-1---------------------3-3-3-3-3-3-3-3|
|---------------------------------------------------------------------|
One for...         Love               One for...       Truth...
One for...         me                 One for...       You.
We once where      divided            Now we stand...  United...
We stand..         as one...          Unnnnnnnn…………hnnnnnnnnnnnnnnnnn

|-------------------|
|--0-0-0-0-0-0-0-0--|
|-------------------|
|-------------------|
Divided...

GUITAR SOLO X 2
|---------------------------------------------------------------------|
|--0-0-0-0-0-0-0-0--------------------3-3-3-3-3-3-3-3-----------------|
|------------------1-1-1-1-1-1-1-1--------------------3-3-3-3-3-3-3-3-|
|---------------------------------------------------------------------| 

ORDER TO PLAY:
Verse
Verse
Bridge 1
Chorus
Verse
Bridge 2
Chorus
Solo
Verse
Bridge 3
Chorus x 2

LRYICS-

Verse:
That was my brother lost in the rubble
That was my sister lost in the crush
That was our mothers, those were our children
That was our fathers, that was each one of us

Bridge:
A million prayers to God above
A million tears make an ocean of

Chorus:
One for love
One for truth
One for me, one for you

Verse:
I found spirit, they couldn't ruin it
I found courage in the smoke and dust
I found faith in the songs you silenced
Deep down it's ringing out in each of us

Bridge:
Yeah... yeah, yeah, yeah, yeah

Chorus:
One for love
One for truth
One for me, one for you
Where we once were divided, now we stand united
We stand as one... undivided.

Solo

Verse:
How many hands? How many hearts?
How many dreams been torn apart?

Bridge:
Enough, enough... the time has come to rise back as

Chorus:
One for love
One for truth
One for me, one for you
Where we once were divided now we stand united
We stand as one... undivided.
Undivided
Undivided

One for love
One for truth
One for me, one for you
Where we once were divided, now we stand united
We stand as one... undivided.

*******************
            
Submit corrections

comments powered by Disqus
↑ Back to top | Bon Jovi Bass for Undivided. Lyrics for acoustic guitar and electric guitar. Tablatures and chords are parodies/interpretations of the original songs. You may use it for private study, scholarship, research or language learning purposes only