» » »

Bon Jovi, T.L.F.R. - Livin On A Prayer Bass tabs (ver.1)

Artists:  A B C D E F G H I J K L M N O P Q R S T U V W X Y Z # 

T.L.F.R. - Livin On A Prayer Bass tabs (ver.1)

Bon Jovi Tabs
 Rating:
4/5 (4 votes)
T.L.F.R. - Livin On A Prayer lessons Tabs too difficult? Try these video lessons and learn fast
1
                
(Tune half a step down Eb,Ab,Db,Gb)
(bass enters at 0:17)

Verse 1 
Gb:----------------------------------|  
Db:----------------------------------|  
Ab:---7---5-7-7-5-7------------------|x2
Eb:-0---7----------------------------|  

Gb:------------------------------------------------------------------|
Db:------------------------------------------------------------------|
Ab:-3~~~~~~~------3/5~~~~~~~----------7---5-7-7-5-7------------------|x1
Eb:---------------------------------0---7----------------------------|

Repeat:
Verse 1

Rest until 1:25

Verse 2
Gb:----------------------------------|  
Db:----------------------------------|  
Ab:---7---5-7-7-5-7------------------|x4
Eb:-0---7----------------------------|  

Gb:------------------------------------------------------------------|
Db:------------------------------------------------------------------|
Ab:-3~~~~~~~------3/5~~~~~~~----------7---5-7-7-5-7------------------|x1
Eb:---------------------------------0---7----------------------------|

Repeat:
Verse 1

Rest until 2:47

Repeat:
Verse 1

Rest until 3:13

Chorus
Gb:------------------------------------------------------------------|
Db:---------------------------------5~~~-----------------------------|
Ab:-------3~~~------5~~~~~~~--------------3~~~------5~~~~~~~---------|x2
Eb:-0~~~-------------------------------------------------------------|
            
Submit corrections

comments powered by Disqus
↑ Back to top | Bon Jovi Bass for T.L.F.R. - Livin On A Prayer. Lyrics for acoustic guitar and electric guitar. 1 Tablatures and chords are parodies/interpretations of the original songs. You may use it for private study, scholarship, research or language learning purposes only