>
 >
Roulette

Roulette Guitar Tabs

Bon Jovi - Roulette chords, tabs, tablatures, lyrics

Guitar lessons | Add/correct | Request | Top 50 tabs Artists:  A B C D E F G H I J K L M N O P Q R S T U V W X Y Z 0-9

Roulette Guitar Tabs – Bon Jovi

CD, Sheet music, Poster

Do you like Roulette? Share with your friends now
Tabs
Tuning: Standard 

Intro

E|--------------------------------------------------|
B|-----5-------5-------5-------5------5------5------|
G|-4-------4-------4-------4-------4-----4----------| 
D|---2---2---2---2---2---2---2---2---2--2--2---2----| x 3
A|--------------------------------------------------|
E|--------------------------------------------------|


E|--------------------------------------------------|
B|--------------------------------------------------|
G|--------9-----9---------7-----7----------5----5---|
D|--------9-----9---------7-----7----------5----5---|
A|--------7-----7---------5-----5----------3----3---|
E|-0-0-0-0--0-0---0-0-0-0---0-0----0-0-0-0--0-0-----|

E|--------------------------------------------------|
B|-------------------------8--------7-----------5--5|
G|---------5-----5---------9--------7---------5----5| 
D|---------5-----5----------------------------------|
A|---------7-----7----------------------------------|
E|-0-0-0-0---0-0---0-0-0-0---0-0-0-0--0-0-0-0-------|

Verse (As the intro almost)
Pre Chours
E|--------------------------------------------------|
B|--------------------------------------------------|
G|----------5-5-5-5-5-5-5-5---------9------9--------|
D|----------5-5-5-5-5-5-5-5---------9------9--------|
A|--7-------3-3-3-3-3-3-3-3---------7------7--------|
E|----5-8-7-----------------0-0-0-0---0-0-----------|

E|--------------------------------------------------|
B|--------------------------------------------------|
G|---------9-----------------0----0---0-----0---7---|
D|---------9---------------2----0----2----0-----7---|
A|---------7----7-5------3----2-----3---2-------5---|
E|-0-0-0-0---0-----8-7------------------------------|

Chours
E|--------------------------------------------------|
B|--------------------------------------------------|
G|-9----7---5---2-2-2-2-2-2-2-2-2-2-2-2-2-2---------| 
D|-9----7---7---2-2-2-2-2-2-2-2-2-2-2-2-2-2---------|
A|-7----5---7---4-4-4-4-4-4-4-4-4-4-4-4-4-4-2-0-----|
E|-0--------5-----------------------------------3-2-|

Verse
Pre Chours
Chours x2
Bridge

E|--------------------------------------------------|
B|-5-5-5-5--7-7-7-7--8-8-8-8-8-8-8-8--5-5-5-5-7-7-77|
G|-5-5-5-5--7-7-7-7--9-9-9-9-9-9-9-9--5-5-5-5-7-7-77|
D|--------------------------------------------------|
A|--------------------------------------------------|
E|--------------------------------------------------|

E|-|------------------------------------------------|
B|-|------------------------------------------------|
G|-|----4----4-----4--------------------------------| 
D|-|--4----4-----4-----x-3--------------------------|
A|-|2-----2----2------------------------------------|
E|-|------------------------------------------------|

Solo Didnt have time for solo !
Play The verse on the solo
Bridge
Chours





Comments


Popular Bon Jovi tabs & chords
Because We Can Chords
Have A Nice Day 1 Chords
Hearts Breaking Even Chords
Blood Money 2 Tabs
Born To Be My Baby (Solo) Tabs
Hardest Part Is The Night Tabs
Livin On A Prayer 2 Tabs
Wanted 2 Tabs
Only Lonely Ukulele
Put The Boy Back In Cowboy Ukulele


Song lyrics



↑ Back to top | Tablatures and chords are parodies/interpretations of the original songs. You may use it for private study, scholarship, research or language learning purposes only
© 2014 AZChords.com Contact us | Privacy policy | DMCA | Add/correct tabs | Request tabs | Top 50 tabs