>
 >
Rockslow

Rockslow Guitar Tabs

Bon Jovi - Rockslow chords, tabs, tablatures, lyrics

Guitar lessons | Add/correct | Request | Top 50 tabs Artists:  A B C D E F G H I J K L M N O P Q R S T U V W X Y Z 0-9

Rockslow Guitar Tabs – Bon Jovi

CD, Sheet music, Poster

Do you like Rockslow? Share with your friends now
Tabs
(distortion)

--------------------------------------|
---4-4b6--4---4-6-6b7-6-4---7-6-4-2---|
-2----------2-------------7---------2-|
--------------------------------------|
--------------------------------------|
--------------------------------------|

(clean)
                       sweep..
---------------0-00--2---2-2----2--------------------------|
----------3----3-33--3--3---3-----3---------2-2-22------5--|
-6----------0--0-00--2-2-----2------2---------2-22---------|
---6-----------------0----------------0---2---2-22----6----|
--------2-------------------------------0-----0-00--4------|
------3----------------------------------------------------|

                          |(dist)PM            PH
---------------0-00------2|----------------------------|
------------3--3-33-------|----------------------------|
---6-----------0-00----2--|---------2------------------|
-6-------------------0----|---------2-----------4~~2~~-|
-----4----2---------------|------00-0-------2h4--------|
--------3-----------------|--15\----------5------------|
                          |

              PM          PM            PM      PM
-----------------3----2-------3----2--------------------|
-5-------5-------3----3-------3----3---------------5----|
-6-----6---6-----0----2-------0----2-------2-------6----|
-6---6-----------0----0-------0----0-------2-------6----|
-4-4-------------2------------2---------00-0----44-4----|
--------------33-3---------33-3-------------------------|

 PM                                  PM
----3----1----------------------3-------1-------|
----3----3--------------5-------3-------3-------|
----2----2------2-------6-------2-------2-------|
-00-0----0------2-------6-------0----00-0-------|
----------------0-------4-----------------------|
------------------------------------------------|

                                     |(clean)
-------------------------------------|--------------------|
-------------------------------------|-----5------------3-|
---4-4b6-4---4-6-6b7-6-4---7-6-4-2---|---------6----------|
-2---------2-------------7---------2-|---6-------6--------|
-------------------------------------|-4--------------2---|
-------------------------------------|--------------3-----|
                                     |

         sweep
-0-00--2---2----2----------------------------------------|
-3-33--3--3-3-----3--------2--2-22------5--------------3-|
-0-00--2-2---2------2---------2-22----------6------------|
-------0-----------------2----2-22----6-------6----------|
-----------------------0------0-00--4-----------4----2---|
---------------------------------------------------3-----|

            |(dist)            PH...
-0-00--2----|--------------------------------------------|
-3-33--3----|-----------------------------5------5-------|
-0-00--2----|------222------------2-------6--------------|
-------0----|------222----------2----4-2--6----6---------|
------------|-15\--000------2-4-----------4--4------15\--|
------------|-15\---------5-------------------------15\--|
            |

           PM
-3----2-------3----2--------------------3-------1-------|
-3----3-------3----3------------5-------3-------3-------|
-0----2-------0----2----2-------6-------2-------2-------|
-0----0-------0----0----2-------6-------0-------0-------|
-2------------2---------0-------4-----------------------|
-3---------33-3-----------------------------------------|


-----------------3-------1-----------|
---------5-------3-------3-----------|
-2-------6-------2-------2-----------|
-2-------6-------0-------0-----------|
-0-------4-----------------------15\-|
-------------------------------------|

Solo

              PH....
----------------------------------------------------------|
------------------------------------14b15r14b15r14--------|
-------6-b8r6----------9b11~~-9~~~~----------------14-----|
---7-9--------9b11r9p7------------------------------------|
-7--------------------------------------------------------|
------------------------------------------------------15\-|

                      whammy bar
                      \1/\1/\1/\1/\1/\1/\1/\1/
--------------------------------------------------------|
-----------------------------------------------14b15r14-|
-----------------------------------14-14-16-16----------|
---3-5-5s7----5-7-7s9--------14-14----------------------|
-3----------5----------16-16----------------------------|
--------------------------------------------------------|

---------------------------21b23r21b23-17--15h17p15h17p15h-|
-------------17b19~~r17-17---------------------------------|
-16b18r16-14-----------------------------------------------|
-----------------------------------------------------------|
-----------------------------------------------------------|
-----------------------------------------------------------|


-17p15h17-------------------------17h19p17h19p17h19p17h19-|
----------15h17p15h17p15h17p15h17-------------------------|
----------------------------------------------------------|
----------------------------------------------------------|
----------------------------------------------------------|
----------------------------------------------------------|

                                 solo end
--------------------------15b17~~~~~~~~~-|
-17h19p17h19p17h19p17h19-----------------|
-----------------------------------------|
-----------------------------------------|
-----------------------------------------|
-----------------------------------------|


(dist)                              PM
--------------------------3----2-------3----2------------|
------------5-------------3----3-------3----3------------|
----------6---6-----------0----2-------0----2----2-------|
--------6-------6---------0----0-------0----0----2-------|
-12\--4-----------4-------2------------2---------0-------|
-12\-----------------10\--3---------33-3-----------------|

         PM                                         tr....
------------3-------1-----------------------3------1-11111-|
-5----------3-------3---------------5-------3------3-33333-|
-6----------2-------2-------2-------6-------2------2-22222-|
-6-------00-0-------0-------2-------6-------0------0-00000-|
-4--------------------------0-------4----------------------|
-----------------------------------------------------------|


----------------------------------------------------------|
-----------------------------------------12-12b14r12---12-|
---4-4b6-4----4-6-6b7-6-4---7-6-4-2----9-------------9----|
-2----------2-------------7---------2---------------------|
----------------------------------------------------------|
----------------------------------------------------------|

-------------------------------10-10---10---10---10---10----|
-14-14b15-14-12-10-15-14-12-10-10---10---10---10---10---10--|
-------------------------------9------9----9----9----9----9-|
------------------------------------------------------------|
------------------------------------------------------------|
------------------------------------------------------------|


slow down
-10-------10---------10-------------------10--------------|
----10--------10-----------10-------------------10--------|
-------9----------9---------------9--------------------9--|
----------------------------------------------------------|
----------------------------------------------------------|
----------------------------------------------------------|

-10~~~~~~~~~~~~~~~~--------|
-10~~~~~~~~~~~~~~~~--------|
-9-~~~~~~~~~~~~~~~~--------|
---------------------------|
---------------------------|
---------------------------|





Comments


Popular Bon Jovi tabs & chords
Crazy Love Chords
Ill Be There For You 1 Chords
Ill Sleep When Chords
In These Arms Intro Tabs
Livin On A Prayer Complete Tabs
Someday Tabs
These Days Tabs
Til We Aint Strangers Anymore Intro Tabs
Bed Of Roses 2 Ukulele
I Want You Ukulele


Song lyrics



↑ Back to top | Tablatures and chords are parodies/interpretations of the original songs. You may use it for private study, scholarship, research or language learning purposes only
© 2014 AZChords.com Contact us | Privacy policy | DMCA | Add/correct tabs | Request tabs | Top 50 tabs