>
 >
Price Of Love

Price Of Love Guitar Tabs

Bon Jovi - Price Of Love chords, tabs, tablatures, lyrics

Guitar lessons | Add/correct | Request | Top 50 tabs Artists:  A B C D E F G H I J K L M N O P Q R S T U V W X Y Z 0-9

Price Of Love Guitar Tabs – Bon Jovi

CD, Sheet music, Poster

Do you like Price Of Love? Share with your friends now
Tabs
Tuning: Standard

b^ Bend 1/2 tone
b^^ Bend 1 Tone

Intro
e|-13-13b^-13----13-13b^-13----13-13b^-13---13-13b^-13----13-13b^-15-------|
b|-------------------------------------------------------------------------|
G|------------14------------14-------------------------15------------------|
D|-------------------------------------------------------------------------|
A|-------------------------------------------------------------------------|
E|-------------------------------------------------------------------------|

e|-13-13b^-13--13-13b^-13-----13-13b^-13-15--13-13b^-13--17-15-13-12-------|
B|-------------------------------------------------------------------------|
G|------------------------14-----------------------------------------------|
D|-------------------------------------------------------------------------|
A|-------------------------------------------------------------------------|
E|-------------------------------------------------------------------------|

Vers
e|-------------------------------------------------------------------------|
B|-------------------------------------------------------------------------|
G|-------------7-7-----7-7-------------------------------------------------|
D|----0-3-2----7-7-----7-7----6-6----5-5----7-7----------------------------|
A|-2-3-----3---5-5-----5-5----6-6----5-5----7-7----------------------------|
E|----------------------------8-8----3-3----5-5----------------------------|

Pre Chours
e|-------------------------------------------------------------------------|
B|-------------------------------------------------------------------------|
G|-3----5------3-----------------------------------------------------------|
D|-3----5-3----3-----7-----------------------------------------------------|
A|-1----3-3----1-----7-----------------------------------------------------|
E|--------1----------5-----------------------------------------------------|

Chours
e|-------------------------------------------------------------------------|
B|-------------------------------------------------------------------------|
G|--7-7-9-9-10-10--x-2---7-7-5-5-7-7-7---5-5-7-9-10-9-7--------------------|
D|--7-7-7-7-8--8---------5-5-3-3-5-5-5---5-5-7-7-8--7-7---------x4---------|
A|-------------------------------------------------------------------------|
E|-------------------------------------------------------------------------|

Verse 2
e|-------------------------------------------------------------------------|
B|-------------------------------------------------------------------------|
G|-7-7---------------------------------------------------------------------|
D|-7-7--8-8---5-5---7-7--------------x-2-----------------------------------|
A|-5-5--8-8---5-5---7-7----------------------------------------------------|
E|------6-6---3-3---5-5----------------------------------------------------|

Pre Chours 2
e|-------------------------------------------------------------------------|
B|-------------------------------------------------------------------------|
G|-3--3-3-----------3---3-3------------------------------------------------|
D|-3--3-3----5------3---3-3----5------3-3-3-3-3----------------------------|
A|-1--1-1----3--3---1---1-1----3--3---1-1-1-1-1--7-7-7-7-------------------|
E|--------------1-----------------1--------------5-5-5-5-------------------|

Chours 
Pre Solo
e|-10-------8-------6------------------------------------------------------|
B|---10-------10------6-------6--------------------------------------------|
G|------10-------9------7---7---9-----------------------x-3----------------|
D|-------------------------------------------------------------------------|
A|-------------------------------------------------------------------------|
E|-------------------------------------------------------------------------|

Guitar 2 plays 

e|-------------------------------------------------------------------------|
B|-------------------------------------------------------------------------|
G|-------------------------------------------------------------------------|
D|-------------------------------------------------------------------------|
A|--5-5-5-5-5-5-5-5-5-5-5-5-5-5-5-5-5-5-5-5-5-5-5-5-5-5-5-5-5-5-5-5-5-5-5--|
E|-------------------------------------------------------------------------|

Solo (Sry coudlnt figure out, play D and Bb on the solo)

Chours





Comments


Popular Bon Jovi tabs & chords
When We Were Beautiful Bass Tabs
Destination Anywhere Chords
Its My Life 3 Chords
Livin On A Prayer 4 Chords
You Had Me From Hello Chords
Livin On A Prayer With Lyrics Tabs
Silent Night Tabs
Someday I'll Be Saturday Night Tabs
Bed Of Roses Ukulele
If Thats What It Takes Ukulele


Song lyrics



↑ Back to top | Tablatures and chords are parodies/interpretations of the original songs. You may use it for private study, scholarship, research or language learning purposes only
© 2014 AZChords.com Contact us | Privacy policy | DMCA | Add/correct tabs | Request tabs | Top 50 tabs