>
 >
Love Is War

Love Is War Guitar Tabs

Bon Jovi - Love Is War chords, tabs, tablatures, lyrics

Guitar lessons | Add/correct | Request | Top 50 tabs Artists:  A B C D E F G H I J K L M N O P Q R S T U V W X Y Z 0-9

Love Is War Guitar Tabs – Bon Jovi

CD, Sheet music, Poster

Do you like Love Is War? Share with your friends now
Tabs
Love Is War (b-side)
Jon Bon Jovi / Richie Sambora
------------------------------

<<before-INTRO>>
A --> hold this note at the bass

Load your guns, take sides
Raise your flag, 'cause baby, love is war

<<Intro>>
          xxx           xxxxxxx
D---7--7--7-7--5--7--7------------------------------5--
A---5--5--5-5--3--5--5-----------7--7--5--7--7---7--3--
E-----------------------0-0-3-0--5--5--3--5--5---5-----

                      xxxx
D---7--7--5--7^-----------------------------3--
A---5--5--3--5^---5b--3----3----5--7--7--7--5--
E----------------------3-5---5--3--5--5--5-----

<<VERSE1>>
          xxx           xxxxxxx
D---7--7--7-7--5--7--7------------------------------5--
A---5--5--5-5--3--5--5-----------7--7--5--7--7---7--3--
E-----------------------0-0-3-0--5--5--3--5--5---5-----
Hey baby, what ever happened to the girl next door

          xxx           xxxxxxx
D---7--7--7-7--5--7--7------------------------------5--
A---5--5--5-5--3--5--5-----------7--7--5--7--7/5/7--3--
E-----------------------0-0-3-0--5--5--3--5--5/3/5-----
If I remember, she looked a lot like you

          xxx           xxxxxxx
D---7--7--7-7--5--7--7------------------------------5--
A---5--5--5-5--3--5--5-----------7--7--5--7--7---7--3--
E-----------------------0-0-3-0--5--5--3--5--5---5-----
Whatever happened to the boy who said, "I'd die for you"

          xxx           xxxxxxx
D---7--7--7-7--5--7--7---------------------------------
A---5--5--5-5--3--5--5-----------7--7--5--7^-----------
E-----------------------0-0-3-0--5--5--3--5^--8-7-5/0--
We're hangin' on, but love is gone and now it's war

<<BRIDGE>>
A--5^--5-7^---5^-5--7^---7--5-
E--3^--3-5^---3^-3--5^---5--3-
You got your weapons, baby I got mine
You tried to trap me with your bedroom eyes

   xxxxxxx  xxxxxxx  xxx
A--3-3-3-3--5-5-5-5--5-5---10--7^--
E--1-1-1-1--3-3-3-3--3-3---8---5^--
Under the covers, 'cross the enemy lines

A--5--5--5^-----5^---
E--3--3--3^-----3^---
When you don't know, you just say no.


<<CHORUS>
A--6^--8^-----8--12--10V-
E--4^--6^-----6--10--8-V-
Tell me why, love is war

D---------------------------10------------
A--------6^--------8^-------8-----8----10-
E--------4^--------6^-------------6----8--
When the battle is done you still want more

A--6^--------8^-----------------8----12--10V-
E--4^--------6^-----------------6----10--8-V-
Every broken heart is tryin' to even the score

D--------------------------10------------
A--------6^--------8^------8----8----10-
E--------4^--------6^-----------6----8--
It's the way of the world, love is war

D--------------------10------------
A----6^--------8^----8----8--10-
E----4^--------6^---------6--8--
When boy meets girl, love is war


<<VERSE2>>
          xxx           xxxxxxx
D---7--7--7-7--5--7--7------------------------------5--
A---5--5--5-5--3--5--5-----------7--7--5--7--7---7--3--
E-----------------------0-0-3-0--5--5--3--5--5---5-----
Oh I remember when the love was good and the bed was hot
          xxx           xxxxxxx
D---7--7--7-7--5--7--7------------------------------5--
A---5--5--5-5--3--5--5-----------7--7--5--7--7/5/7--3--
E-----------------------0-0-3-0--5--5--3--5--5/3/5-----
But now we sleep on separate sides and the sheets are cold
          xxx           xxxxxxx
D---7--7--7-7--5--7--7---------------------------------
A---5--5--5-5--3--5--5-----------7--7--5--7^-----------
E-----------------------0-0-3-0--5--5--3--5^--8-7-5/0--
Aw, I used to love your candy baby, now the store is closed

<<BRIDGE>>
A--5^--5-7^---5^-5--7^---7--5-
E--3^--3-5^---3^-3--5^---5--3-
I know my silence tears you up inside
You built a fortress for your hurt to hide

   xxxxxxx  xxxxxxx  xxx
A--3-3-3-3--5-5-5-5--5-5---10--7^--
E--1-1-1-1--3-3-3-3--3-3---8---5^--
You think you've won, but it's a tie

A--5--5--5^-----5^---
E--3--3--3^-----3^---
'Cause nobody wins a war of pride


<<CHORUS>
A--6^--8^-----8--12--10V-
E--4^--6^-----6--10--8-V-
Tell me why, love is war

D---------------------------10------------
A--------6^--------8^-------8-----8----10-
E--------4^--------6^-------------6----8--
When the battle is done you still want more

A--6^--------8^-----------------8----12--10V-
E--4^--------6^-----------------6----10--8-V-
Every broken heart is tryin' to even the score

D--------------------------10------------
A--------6^--------8^------8----8----10-
E--------4^--------6^-----------6----8--
It's the way of the world, love is war

D--------------------10------------
A----6^--------8^----8----8--10-
E----4^--------6^---------6--8--
When boy meets girl, love is war

<<Solo>>
3x A--6^--8^-----8--12--10V-
   E--4^--6^-----6--10--8-V-   

A--6^--8^-
E--4^--6^- 

<<Just voices>>
Tell me why, love is war
What the hell are we fighting for

<<CHORUS> 2x

A--6^--8^-----8--12--10V-
E--4^--6^-----6--10--8-V-
Tell me why, love is war

D---------------------------10------------
A--------6^--------8^-------8-----8----10-
E--------4^--------6^-------------6----8--
When the battle is done you still want more

A--6^--------8^-----------------8----12--10V-
E--4^--------6^-----------------6----10--8-V-
Every broken heart is tryin' to even the score

D--------------------------10------------
A--------6^--------8^------8----8----10-
E--------4^--------6^-----------6----8--
It's the way of the world, love is war

D--------------------10------------
A----6^--------8^----8----8--10-
E----4^--------6^---------6--8--
When boy meets girl, love is war


<<Final>>
A--6^--8^-----8--12--10V-
E--4^--6^-----6--10--8-V-
     War,     love is war

A--6^--8^--8----12--10V-
E--4^--6^--6----10--8V--
   war,    love is war

A--6^--8^--8----12--10V-
E--4^--6^--6----10--8V--
   war,    love is war

A--6^--8^--8--8--8--10V-
E--4^--6^--6--6--6---8V--
   war,    love is war

CODES:
b = It pulls the string for down to give the D# sound
    and comes back to the normal one.  
    
    Puxe a corda para baixo para dar o de D# e volte ao normal.

^ = Let to sound the note 
    
    Deixe soar a nota

/ = It drags the fingers for the other note, without beating in the strings.
  
    Arraste os dedos para a outra nota, sem bater nas cordas.

x = When touching, stifles the string.
   
    Ao tocar, abafe a corda.

Transcripted by Felipe Fontoura
ICQ 60257367





Comments


Popular Bon Jovi tabs & chords
Always 2 Bass Tabs
Lay Your Hands On Me Bass Tabs
Everyday Original Chords
Joey Chords
We Got It Going On 1 Chords
Always (Solo Ver 2) Tabs
Joey 1 Tabs
Wanted Dead Or Alive 7 Tabs
We Can Dance Intro Tabs
Bed Of Roses Ukulele


Song lyrics



↑ Back to top | Tablatures and chords are parodies/interpretations of the original songs. You may use it for private study, scholarship, research or language learning purposes only
© 2014 AZChords.com Contact us | Privacy policy | DMCA | Add/correct tabs | Request tabs | Top 50 tabs