>
 >
Everybodys Broken

Everybodys Broken Guitar Tabs

Bon Jovi - Everybodys Broken chords, tabs, tablatures, lyrics

Guitar lessons | Add/correct | Request | Top 50 tabs Artists:  A B C D E F G H I J K L M N O P Q R S T U V W X Y Z 0-9

Everybodys Broken Guitar Tabs – Bon Jovi

CD, Sheet music, Poster

Do you like Everybodys Broken? Share with your friends now
ChordsChords v2Chords v3Chords v4TabsUkulele
i got this from the live lost highway dvd, bon jovi plays standard tuning in studio, but half 
step down live(most the time).  this is only jons part with a 12 string , i dont know richies
part, which is basically the same but i dont have the solo

e----------------------------------0--------------------------------..e
b----------------------------------0--------------------------------..b
g---12----12---12---12---9---7-----5-------x2-----------------------..g
d---12----12---12---12---9---7-----5--------------------------------..d
a---10-----9---10----9---7---5-----3--------------------------------..a
e----------------------------------------------- WELCOME TO THE..--e..

e--------------------------------------------------------------------|.e
b--------------------------------------------------------------------|.b
g---5----7---5---7---------x2----------------------------------------|.g
d---5----7---5---7---------------------------------------------------|.d
a---3----5---3---5---------------------------------------------------|.a
e--------------------------------------------------------------------|.e
LITTLE LINES....

e----x-x------x-x-------------------|.e
b----x-x------x-x-------------------|.b
g----x-x------x-x-------------------|.g
d----x-x------x-x-------------------|.d
a----x-x------x-x-------------------|.a
e----x-x------x-x-------------------|.e
OUT...

e-----3----3----0----3---------------------|.e
b-----3----2----2----3---------------------|.b
g-----0----3----2----0---------------------|.g
d-----0----0----2----3---------------------|.d
a-----3----0----0----2---------------------|.a
e-----2------------------------------------|.e
ITS OKAY...

e-----------------------------------------------|.e
b-----------------------------------------------|.b
g---12----12---12---12---9---7-----55555--x2----|.g
d---12----12---12---12---9---7-----55555--------|.d
a---10-----9---10----9---7---5-----33333--------|.a
e-----------------------------------------------|.e

ending

e-----3----3----0----3---------------------|.e
b-----3----2----2----3---------------------|.b
g-----0----3----2----0---------------------|.g
d-----0----0----2----3---------------------|.d
a-----3----0----0----2---------------------|.a
e-----2------------------------------------|.e
KEEP ON GOIN...

e------------------------------------------|.e
b------------------------------------------|.b
g---12----12---12---12---9---7-------------|.g
d---12----12---12---12---9---7-------------|.d
a---10-----9---10----9---7---5-------------|.a
e------------------------------------------|.e

e-------------------------------------------|.e
b-------------------------------------------|.b
g---12----12---12---12---9~~----------------|.g
d---12----12---12---12---9~~----------------|.d
a---10-----9---10----9---7~~----------------|.a
e-------------------------------------------|.e





Comments


Popular Bon Jovi tabs & chords
Ill Be There For You 2 Bass Tabs
One Step Closer Bass Tabs
Because We Can 1 Chords
I Will Be There For You Chords
Miracle Chords
Seat Next To You 1 Chords
Blame It On The Love Of Rock And Roll Tabs
Have A Nice Day 2 Tabs
Santa Fe Tabs
Superman Tonight 3 Tabs


Song lyrics



↑ Back to top | Tablatures and chords are parodies/interpretations of the original songs. You may use it for private study, scholarship, research or language learning purposes only
© 2014 AZChords.com Contact us | Privacy policy | DMCA | Add/correct tabs | Request tabs | Top 50 tabs