» » »

Bon Jovi, Captain Crash Tabs (ver.1)

Artists:  A B C D E F G H I J K L M N O P Q R S T U V W X Y Z # 

Captain Crash Tabs (ver.1)

Bon Jovi Tabs
 Rating:
4/5 (4 votes)
Captain Crash lessons Tabs too difficult? Try these video lessons and learn fast
                CAPTAIN CRASH AND THE BEAUTY QUEEN FROM MARS

E-8-----8-----8-----------------8-----8-----8----------------
B--8-----8-----8------6/8\6------8-----8-----8------6/8\6----
G----5-----5-----5----------5------5-----5-----5----------5--
D------------------------------------------------------------
A------------------------------------------------------------
E------------------------------------------------------------

chorus
E-------------------------------------------------------
B-------------------------------------------------------
G-5-----------10---------12----------5------------------
D-5-----------10---------12----------5-------3--------5-
A-3-----------8----------10----------3-------3--------5-
E-------------8----------10------------------1--------3-

verses
E--------------------------------------------------
B--------------------------------------------------
G-5--7--9----5--7--9----10--12--14----4-44--5--7-5-
D-5--7--9----5--7--9----10--12--14----4-44--5--7-5-
A--------------------------------------------------
E--------------------------------------------------

bridge
E------------------3--3--3--3--33--------------------
B-3--3--3--3--33---3--3--3--3--33---3--3--3--3-------
G-2--2--2--2--22---0--0--0--0--00---2--2--2--2---5---
D-0--0--0--0--00---0--0--0--0--00---0--0--0--0---5---
A------------------2--2--2--2--22----------------3---
E------------------3--3--3--3--33--------------------

bit after choruse
E---------------------------------------
B-----5------5------5-------------------
G---5--5---5--5---5--5------------------
D-7-------6------5------4-----3-------5-
A-----------------------------3-------5-
E-----------------------------1-------3-


solo
E-12----12----12----12----13-----13-----8-6--8-6--|---------------
B---13----13----13----13----13-----13------8----8-|-6--8--6-------
G-----12----------12----------13------------------|---------8--5--
D-------------------------------------------------|---------------
A-------------------------------------------------|---------------
E-------------------------------------------------|---------------
            
Submit corrections

comments powered by Disqus
↑ Back to top | Bon Jovi Tabs for Captain Crash. Lyrics for acoustic guitar and electric guitar. Tablatures and chords are parodies/interpretations of the original songs. You may use it for private study, scholarship, research or language learning purposes only