>
 >
All About Loving You

All About Loving You Guitar Tabs

Bon Jovi - All About Loving You chords, tabs, tablatures, lyrics

Guitar lessons | Add/correct | Request | Top 50 tabs Artists:  A B C D E F G H I J K L M N O P Q R S T U V W X Y Z 0-9

All About Loving You Guitar Tabs – Bon Jovi

CD, Sheet music, Poster

Do you like All About Loving You? Share with your friends now
ChordsDrum TabsTabsUkulele
All about loving you
Bon jovi

Intro
e-----------------------------------------------|
B----------------13-12h13-12------12-----------|
G-12--------14-----------------14------12-------|
D------12---------------------------------14/12-|
A-----------------------------------------------|
E-----------------------------------------------|

Verse 1
G                          Dsus4/F#
Looking at the pages of my life
      F
Faded memories of me and you
C
Mistakes you know I've made a few
G                                     Dsus4/F#
I took some shots and fell from time to time
     F                                  C
Baby, you were there to pull me through

   G       Dsus4/F#  F         C
e------3----------3-------------------------------|
B-----3-3-3------3-3-3-----1-----------1-3-1---1-|
G----0---0------2---2------2-2-2-------0------0---| x2
D-------------0-----------3---3------2------------|
A---2-------------------3----------3--------------|
E--3--------2----------1--------------------------|


Pre-chorus 1
    (C)                             Em
We've been around the block a time or two
    C                   D/F#
I'm gonna lay it on the line
Bm                         Em
Ask me how we've come this far
    C                      D/F#
The answer's written in my eyes

  Em      C     D/F#  Bm
e------0----------2-----------|
B-----0-----1-3--3---------3-|
G----0------0-----2--------4--|
D---2-------------0-------4---|
A----------3------0------2----|
E-0---------------2-----------|

Chorus
           G                         Bm
Every time I look at you, baby, I see something new
     C                               Cm  Fill1
That takes me higher than before and makes me want you more
              G                               Bm       Em
I don't wanna sleep tonight, dreamin's just a waste of time
       F                                  D
When I look at what my life's been comin' to
C
I'm all about lovin' you

Fill 1
e------------|
B------------|
G------------|
D------------|
A-3--5--6--8-|
E------------|

Verse 2
    G                                           Dsus4/F#   F
I've lived, I've loved, I've lost, I've paid some dues, baby
                                  C
We've been to hell and back again

   G       Dsus4/F#  F         C
e------3----------3-------------------------------|
B-----3-3-3------3-3-3-----1-----------1-3-1---1-|
G----0---0------2---2------2-2-2-------0------0---| x1
D-------------0-----------3---3------2------------|
A---2-------------------3----------3--------------|
E--3--------2----------1--------------------------|

Pre-chorus 2
(C)                                     Em
Through it all you're always my best friend
    C                      D
For all the words I didn't say
    Bm                      Em
and all the things I didn't do
   C                     D
Tonight I'm gonna find a way

  Em      C     D/F#  Bm
e------0----------2-----------|
B-----0-----1-3--3---------3-|
G----0------0-----2--------4--|
D---2-------------0-------4---|
A----------3------0------2----|
E-0---------------2-----------|

Chorus (repeat the one above)

Bridge
Am                  C
You can take this world away
You're everything I am
Am                          C    D
Just read the lines upon my face
I'm all about lovin' you

e---0-------0--------0-------0---5-|
B---1-------1-------1-------1---7-|
G---2-------0--------2-------0---7-|
D---2-------2--------2-------2---7-|
A-0-0--2--3-3--2---0-0--2--3-3---5-|
E----------------------------------|

Solo
e--------------------------------------------------------------|
B-----------------------------------------13-12h13-12---12----|
G-12----12----12-----14-----14------14----------------14----12-|
D---(12)-(12)--(12)---(12)----(12)---(12)---------------------|
A--------------------------------------------------------------|
E--------------------------------------------------------------|

Chorus (repeat the one above)

Ending
                   all about lovin' you
e--------------------------------------3-|
B-------------------------------------3-|
G--------------------------------------0-|
D-12-14-12---12------------------------0-|
A----------14--15----------------------2-|
E--------------------------------------3-|





Comments


Popular Bon Jovi tabs & chords
Bells Of Freedom 2 Bass Tabs
Bed Of Roses 7 Chords
Gotta Have A Reason Chords
In And Out Of Love Chords
Always (Solo Ver 2) Tabs
Wanted Tabs
Bells Of Freedom Ukulele
Ill Sleep When Im Dead Ukulele
Love Me Back To Life Ukulele
Taking It Back Ukulele


Song lyrics



↑ Back to top | Tablatures and chords are parodies/interpretations of the original songs. You may use it for private study, scholarship, research or language learning purposes only
© 2014 AZChords.com Contact us | Privacy policy | DMCA | Add/correct tabs | Request tabs | Top 50 tabs