>
 >
Magnet

Magnet Guitar Tabs

Bombay Bicycle Club - Magnet chords, tabs, tablatures, lyrics

Guitar lessons | Add/correct | Request | Top 50 tabs Artists:  A B C D E F G H I J K L M N O P Q R S T U V W X Y Z 0-9

Magnet Guitar Tabs – Bombay Bicycle Club

CD, Sheet music, Poster

Do you like Magnet? Share with your friends now
Bass TabsBass Tabs v2Bass Tabs v3ChordsTabsTabs v2
Tuning: E Standard

The main tune you hear during the chorus isoriginally played on a keyboard I think, but 
could use a guitar with some
of effect on it. I've supplied a tab for that. :)


 /   slide up
 \   slide down
 ~   vibrato/Let Ring
 b   bend
 b(?)bend to pitch of..

Intro:
Lead
e|---------------------------------------------------------------------------|
B|--11-9---------------------------------------------------------------------|
G|-------11----8-8-8-8-8-8-8-8---X2----11-9----------------------------------| Repeat 2 Times
D|----------11--9-9-9-9-9-9-9-9------------12----9--9--9--9--9--9---X2-------|
A|--------------------------------------------12--10-10-10-10-10-10----------|
E|---------------------------------------------------------------------------|

Rhythm
e|---------------------------------------------------------------------------|
B|---------------------------------------------------------------------------|
G|-8888888888888-555\8888888888888-555/4444444444444-888/4444444444444-555---| Repeat 2 Times
D|-9999999999999-666\9999999999999-666/5555555555555-999/5555555555555-666---|
A|-9999999999999-666\9999999999999-666/5555555555555-999/5555555555555-666---|
E|-7777777777777-444\7777777777777-444/3333333333333-777/3333333333333-444---|

Lead
(PLayed just as the rhythm guitar is about to go into the verse)

e|---------------------------------------------------------------------------|
B|-11-9----------------------------------------------------------------------|
G|-----10---8~---------------------------------------------------------------|
D|-------10-9~---------------------------------------------------------------|
A|---------------------------------------------------------------------------|
E|---------------------------------------------------------------------------|

Verse:
Rhythm
(only the rhythm plays, but it sounds alright if two guitars play it)
e|---------------------------------------------------------------------------|
B|---------------------------------------------------------------------------|
G|-8888888888888-555\8888888888888-555/4444444444444-888/4444444444444-555---| Repeat 2 Times
D|-9999999999999-666\9999999999999-666/5555555555555-999/5555555555555-666---|
A|-9999999999999-666\9999999999999-666/5555555555555-999/5555555555555-666---|
E|-7777777777777-444\7777777777777-444/3333333333333-777/3333333333333-444---|

Chorus:
Lead
e|-44444444-44444444-77777777-777777777777-----------------------------------|
B|-44444444-44444444-77777777-777777777777-----------------------------------|
G|-44444444-66666666-88888888-999999999999-----------------------------------| Repeat 4 Times
D|-66666666-66666666-99999999-999999999999-----------------------------------|
A|-66666666-44444444-99999999-777777777777-----------------------------------|
E|-44444444----------77777777-000000000000-----------------------------------|

Rhythm
e|-1111111111111111-9-9-9-9-9-9-9-9--777777777-7~----------------------------|
B|-1212121212121212-9-9-9-9-9-9-9-9--777777777-7~----------------------------|
G|-1313131313131313-9-9-9-9-9-9-9-9--888888888-8~(leave ringing until lead---| Repeat 4 Times
D|-1313131313131313-1111111111111111-999999999-9~-guitar finishes last set---|
A|-1111111111111111-1111111111111111-999999999-9~-of chords)-----------------|
E|------------------9-9-9-9-9-9-9-9--777777777-7~----------------------------|

Lead:
(Played at the end of the chorus)
e|---------------------------------------------------------------------------|
B|---------------------------------------------------------------------------|
G|-111111111111111111111111~-------------------------------------------------|
D|-9-9-9-9-9-9-9-9-9-9-9-9~--------------------------------------------------|
A|-7-7-7-7-7-7-7-7-7-7-7-7~--------------------------------------------------|
E|-0-0-0-0-0-0-0-0-0-0-0-0~--------------------------------------------------|

(Optional)Chorus
Keyboard Part
e|---------------------------------------------------------------------------|
B|-11-11b(12)-9----9-----------------11-11b(12)-9----9-----------------------|
G|--------------11---8/6-8-6----X3----------------11---8/6-8-8b(9)-----------|
D|---------------------------9~-----------------------------------9~---------|
A|---------------------------------------------------------------------------|
E|---------------------------------------------------------------------------|

Lead
e|---------------------------------------------------------------------------|
B|--11-9---------------------------------------------------------------------|
G|-------11----8-8-8-8-8-8-8-8---X2----11-9----------------------------------| Repeat 2 Times
D|----------11--9-9-9-9-9-9-9-9------------12----9--9--9--9--9--9---X2-------|
A|--------------------------------------------12--10-10-10-10-10-10----------|
E|---------------------------------------------------------------------------|

Rhythm
e|---------------------------------------------------------------------------|
B|---------------------------------------------------------------------------|
G|-8888888888888-555\8888888888888-555/4444444444444-888/4444444444444-555---| Repeat 2 Times
D|-9999999999999-666\9999999999999-666/5555555555555-999/5555555555555-666---|
A|-9999999999999-666\9999999999999-666/5555555555555-999/5555555555555-666---|
E|-7777777777777-444\7777777777777-444/3333333333333-777/3333333333333-444---|

Bridge:
Lead
(Starts after the line 'didn't want to break anybody's mood')
e|---------------------------------------------------------------------------|
B|-7-7-----11-11--7-7-----11-11--8-8--10-10----8-8--10-10--12-12-------------|
G|---------------------------------------------------------------------------|
D|---------------------------------------------------------------------------|
A|---------------------------------------------------------------------------|
E|---------------------------------------------------------------------------|

Chorus: (The keyboard part on guitar could be played here)
Lead
e|-44444444-44444444-77777777-777777777777-----------------------------------|
B|-44444444-44444444-77777777-777777777777-----------------------------------|
G|-44444444-66666666-88888888-999999999999-----------------------------------| Repeat 3 Times
D|-66666666-66666666-99999999-999999999999-----------------------------------|
A|-66666666-44444444-99999999-777777777777-----------------------------------|
E|-44444444----------77777777-000000000000-----------------------------------|

Rhythm
e|-1111111111111111-9-9-9-9-9-9-9-9--777777777-7~----------------------------|
B|-1212121212121212-9-9-9-9-9-9-9-9--777777777-7~----------------------------|
G|-1313131313131313-9-9-9-9-9-9-9-9--888888888-8~(leave ringing until lead---| Repeat 4 Times
D|-1313131313131313-1111111111111111-999999999-9~-guitar finishes last set---|
A|-1111111111111111-1111111111111111-999999999-9~-of chords)-----------------|
E|------------------9-9-9-9-9-9-9-9--777777777-7~----------------------------|

Outro:
Lead
(Played at the end of the chorus)
e|---------------------------------------------------------------------------|
B|---------------------------------------------------------------------------|
G|-111111111111111111111111~-------------------------------------------------|
D|-9-9-9-9-9-9-9-9-9-9-9-9~--------------------------------------------------|
A|-7-7-7-7-7-7-7-7-7-7-7-7~--------------------------------------------------|
E|-0-0-0-0-0-0-0-0-0-0-0-0~--------------------------------------------------|

************************************





Comments


Popular Bombay Bicycle Club tabs & chords
Autumn Bass Tabs
Shuffle 3 Bass Tabs
Cancel On Me Chords
Curl Up Like A Dead Leaf And Go Where The Wind Blows Tabs
Evening Morning 1 Tabs
Leaving Blues 1 Tabs
Sixteen Intro Tabs
The Giantess 1 Tabs
What If Tabs
What You Want Tabs


Song lyrics



↑ Back to top | Tablatures and chords are parodies/interpretations of the original songs. You may use it for private study, scholarship, research or language learning purposes only
© 2014 AZChords.com Contact us | Privacy policy | DMCA | Add/correct tabs | Request tabs | Top 50 tabs