» » »

How Can You Swallow So Much Sleep Tabs (ver.1)

Artists:  A B C D E F G H I J K L M N O P Q R S T U V W X Y Z # 

How Can You Swallow So Much Sleep Tabs (ver.1)

Bombay Bicycle Club
Rating:
0/5 (0 votes)

Hard to play? Try these video lessons and learn fast.
                This is one of the latest bombay songs, its not officially out anywhere yet, but its

Im pretty sure this is nearly correct, it sounds good enough when you play along with
song anyway


listen to the song for timing


e|-------||-------------------------||
B|-10-12-||-0-5-8--3---0-5-8-10-12--||
G|-------||-------4-(0)-------------||
D|-------||-------------------------||
A|-------||-------------------------||
E|-------||-------------------------||
             repeat this part x 12

play the (0) quietly or palm mute it


this part then comes in at 0.52 when the drums come in, but it has a queiter, synthy
effect, it then comes back in with the guitar sound from the beginning at 1.29;


e|------------------------------------|
B|-----0-5-8--10-12---0-5-8--3-0------|
G|------------------------------------|
D|------------------------------------|
A|------------------------------------|
E|------------------------------------|


the first part then comes back in at 2.24 and repeats 7 times, after the seventh time,
ends like this.


e|-----------------|
B|--0-5-8--0-3~----|
G|-----------------|
D|-----------------|
A|-----------------|
E|-----------------|

thats my first tab, hope you like it.

06/06/10
            
Hard to play? Try these video lessons and learn fast. | Correct




comments powered by Disqus
↑ Back to top | Tablatures and chords are parodies/interpretations of the original songs. You may use it for private study, scholarship, research or language learning purposes only