» » »

Bob Seger, Against The Wind Bass tabs (ver.1)

Artists:  A B C D E F G H I J K L M N O P Q R S T U V W X Y Z # 

Against The Wind Bass tabs (ver.1)

Bob Seger Tabs
Rating:
0/5 (0 votes)
Against The Wind lessons Tabs too difficult? Try these video lessons and learn fast
                Bob Seger
Against the Wind


INTRO

-------------------------------------------------------------|
----------------------------0-2----------------------0-2-0---|
-5---------------------------------------------------------2-|
---3----3-3----3-3----3-3-------3----3-3----3-3----3---------|


VERSE 1
       Seems like...
-----------------------------------------------------|
-----------------------------------------------------|
-------------5-------------0--2----2-2------2----2-2-|
-3----3-3------3----3-3-------------------2----------|

-5-----------------------------5--------------------------------|
---2-3----3-3----5---------------5----5-5----5-3----3-3-5-3-2---|
-------------------3----3-3-----------------------------------3-|

  And the secrets...
------------------------------------------------|
------------------------------------------------|
--------5------------0-1-2----2-2------2----2-2-|
-3-3------3----3-3-------------------2----------|

--------------------------------------------|
-2------------------------------------------|
-----3----3-3----5-------------0-2-3----3-3-|
-------------------3----3-3-----------------|

				 And I remember...
--------------------------------------|
-5-----------------7------------------|
---3-5---5---5---5---5---5---5---54-5-|
--------------------------------------|

BRIDGE 1

-----------------------------------------------------|
-----------------------------2----2------------------|
-7----7-5----5----------------------3----3-----------|
---------------3----3-3----3---------------3----3-3--|

--------------------------------------------------------|
---2----2-0----0---------------------------5------------|
-----------------3----3-3------3----3-3------3-5----5-5-|
-3---------------------------3--------------------------|


CHORUS 1
         Against the wind...
---------------------------------------------------------|
---------------------------------------------------------|
-7--------------0-1-2----2-2----2-3----3-3----5----------|
---3----3-3-------------------------------------3----3-3-|

--------------------------------------------------------|
--------------------------------------------------------|
-0-2-3----3-2----2-0----0-3----5------------------------|
---------------------------------3----3-3----3-3----3-3-|

------------------------------------|
-0-2----------------------0-2-0-----|
--------------------------------2---|
-----3----3-3----3-3----3---------3-|


VERSE 2
  Years roll slowly...
-------------------------------------------------|
-------------------------------------------------|
--------5---------------0-2----2-2------2----2-2-|
-3-3------3----3-3----3---------------2----------|

-----------------------------5-----------------------------------|
-2-3----3-3----5---------------5----5-5----0-2-3----3-3----3-5---|
-----------------3----3-3--------------------------------------3-|

  I guess I lost...
------------------------------------------------|
------------------------------------------------|
--------5----------5---0-2----2-2------2----2-2-|
-3-3------3----3-3---3---------------2----------|

------------------------------------------|
------------------------------------------|
-2-3----3-3----5-------------0-2-3----3-3-|
-----------------3----3-3-----------------|

				 Movin' eight...
---------------------------------------|
-5------------------7------------------|
---3-5---5-5-5----5---5---5---5---54-5-|
---------------------------------------|

BRIDGE 2

-----------------------------------------------------|
-----------------------------2----2------------------|
-7----7-5----5----------------------3----3-----------|
---------------3----3-3----3---------------3----3-3--|

------------------------------------------------------|
---2----2-0----0-------------5-------------5----------|
-----------------3----3-3------3----3-3------5----5-5-|
-3----------------------------------------------------|

CHORUS 2

	Against the wind...
---------------------------------------------------------|
------------2-0------------------------------------------|
-7-5------------2---2----2-2----2-3----3-3----5----------|
-----3----3-------3-----------------------------3----3-3-|

------------------------------------------------------|
------------------------------------------------------|
---3----3-2----2-0----0-3----5------------------------|
-3-----------------------------3----3-3----3-3----3-3-|

------------------------------------|
-0-2----------------------0-2-0-----|
--------------------------------2---|
-----3----3-3----3-3----3---------3-|


SOLO

-------------------------------------------------|
-------------------------------------------------|
--------5-------------5---2----2-2------2----2-2-|
-3-3------3----3-3------3-------------2----------|

------------------------------------------|
-5----------------------------------------|
---2-3----3-3----5---------------5----5-5-|
-------------------3----3-3----3----------|

--------------------------------------------|
--------------------------------------------|
-0-2-3----3-3----2-0-------------5----------|
---------------------3----3-3------3----3-3-|

----------------------------------------------------------|
-------------------------------5--------------------------|
---0-2----2-2------2----2-2------2-3----3-3----5----------|
-3---------------2-------------------------------3----3-3-|

					     Well those...
--------------------------------------------------|
--------------------------------------------------|
---3----3-3----3-5---5---5---5-0-5---5---5---54-5-|
-3------------------------------------------------|


BRIDGE 3

-----------------------------------------------------|
-----------------------------2----2------------------|
-7----7-5----5----------------------3----3-----------|
---------------3----3-3----3---------------3----3-3--|

-------------------------------------------------------|
---2----2-0----0---------------------------5-----------|
-----------------3----3-3------3----3-3------3-5---5-5-|
-3---------------------------3-------------------------|


CHORUS/OUTTRO

---------------------------------------------------------|
------------2-0------------------------------------------|
-7-5------------2---2----2-2----2-3----3-3----5----------|
-----3----3-------3-----------------------------3----3-3-|

--------------------------------------------------------|
--------------------------------------------------------|
-0-2-3----3-2----2-0----0-3----5------------------------|
---------------------------------3----3-3----3-3----3-3-|

-----------------------------------------------------|
-------------------------------------45-4-5-6-7------|
-0-2-3---3---2---2-/-5---5---5---5-----------------3-|
-----------------------------------------------------|

--------------------------------------------------------|
--------------------------------------------------------|
-3-3----3----3-3----3-5-------------5-------------0-2-3-|   Repeat until end w/ variations
------------------------3----3-3------3----3-3----------|
            
Submit corrections

comments powered by Disqus
↑ Back to top | Bob Seger Bass for Against The Wind. Lyrics for acoustic guitar and electric guitar. Tablatures and chords are parodies/interpretations of the original songs. You may use it for private study, scholarship, research or language learning purposes only