» » »

Zion Train Bass tabs (ver.1)

Artists:  A B C D E F G H I J K L M N O P Q R S T U V W X Y Z # 

Zion Train Bass tabs (ver.1)

Bob Marley
Rating:
0/5 (0 votes)

Hard to play? Try these video lessons and learn fast.
                Title; Zion Train
Artist; Bob Marley & the Wailers
Album; Uprising


intro
G|-----------------------------------------------------------------------|
D|---7-------55------7-----------------7--------55-----------------------|
A|-----7--------5------7-------88878-----7---------5-----(7)-(7)-(7)-(7)-|
E|-------5-5------3-------5-5--------------5-5-------3-------------------|

chorus X 2 'zion train is comin our way..'
G|---------------------------------|
D|-75----7-------------------------|
A|---75-----------------------57-8-|
E|-----8------3333----03-5---------|

 verse X2
G|-----------------------------------------------------------------------|
D|---7-------55------77----------------7--------55-------7---------------|
A|-----7--------5------7------88878------7---------5-------7-------88-78-|
E|-------8-5------3------8-5----------------8-5-------3-------8-5--------|

 bridge  'oh where there's a will..'
G|-----------------------------------------------------|
D|--7,10,7-7,10,7--9,12,9------7,10,7-7,10,7--9,12,9---|
A|-8------8------10------10---8------8------10------10-|
E|-----------------------------------------------------|

G|------------------------------------------------------------------|
D|--7,10,7-7,10,7--9,12,9------7,10,7-7,10,7--9,12,9-------9,12,9---|
A|-8------8------10------10---8------8------10------10---10------10-|
E|------------------------------------------------------------------|
 return to chorus,verse etc..
            
Hard to play? Try these video lessons and learn fast. | Correct




comments powered by Disqus
↑ Back to top | Tablatures and chords are parodies/interpretations of the original songs. You may use it for private study, scholarship, research or language learning purposes only