» » »

Bob Marley, Work Bass tabs (ver.1)

Artists:  A B C D E F G H I J K L M N O P Q R S T U V W X Y Z # 

Work Bass tabs (ver.1)

Bob Marley Tabs
 Rating:
4/5 (4 votes)
Work lessons Tabs too difficult? Try these video lessons and learn fast
                Song Title; work 
Artist;Bob Marley & the Wailers
Album; Uprising


 riff 1 (intro)
G|--------------------------------|
D|--------567-------------567-----|
A|-----567-------------567--------|
E|--567------567----567------567--|


 riff 2
G|------------------------------------------------------------|
D|-------------5-------------5---------------5-------------5--|
A|-----------75------------75--------------75------------75---|
E|--567-77-7------77-77-77------77--77--77------77-77-77------|


 riff 3 
G|-----------------------------------------------------------|
D|----------797-9---------797-9---------797-9---------797-9--|
A|-----------------------------------------------------------|
E|--75-75-7-------75-75-7-------75-75-7-------75-75-7--------|


 riff 4 X 5 times
G|----------------------------------|
D|-----797-------------797----------|
A|----9---7---55-7----9---9---77-9--|
E|--7--------7------7--------9------|


 riff 5 X 4 times
G|-----------797---|
D|-----797--9---9--|
A|----9---7--------|
E|--7--------------|
 
 return to riff 3, repeat all and end to fade on riff 5
            
Submit corrections

comments powered by Disqus
↑ Back to top | Bob Marley Bass for Work. Lyrics for acoustic guitar and electric guitar. Tablatures and chords are parodies/interpretations of the original songs. You may use it for private study, scholarship, research or language learning purposes only