» » »

We And Them Bass tabs (ver.1)

Artists:  A B C D E F G H I J K L M N O P Q R S T U V W X Y Z # 

We And Them Bass tabs (ver.1)

Bob Marley
Rating:
0/5 (0 votes)

Tabs too difficult? Try these video lessons and learn fast.
                 Title - We and Them
 Artist - Bob Marley & the Wailers
 Album - Uprising

  intro
G|----------------------------------------------------------|
D|----------------------------------------------------------|
A|----------------------------------------------------------|
E|--777-7--777-7--777-7--777-7--777-7--777-7--777-7--777-7--|

   riff 1 x2
G|--------------------------------------|
D|--------------------------------------|
A|--------------------------------------|
E|--55-5--5-7-5-3-0----55-5--5-7-5-3-0--|

   riff 2 x2
G|---------------------------------------|
D|---------------------------------------|
A|-------7--7-9-10-9-7-------------------|
E|--77-7----------------88-8--1010-10----|
                               (tens)
   riff 3
G|----------------------------|
D|----------------------------|
A|-------77-77------5---------|
E|--77-7-------7---------(3)--|

song structure; intro  x1
                riff 1 x2
                riff 2 x2
                riff 3 x1
                riff 1 x2
                riff 2 x4
                riff 1 x2
                riff 2 x3
                riff 1 x2
                riff 2 x2
                riff 3 x1
                riff 1 to fade
            
Tabs too difficult? Try these video lessons and learn fast.




comments powered by Disqus
↑ Back to top | Tablatures and chords are parodies/interpretations of the original songs. You may use it for private study, scholarship, research or language learning purposes only