» » »

Bob Marley, Walk The Proud Land Bass tabs (ver.1)

Artists:  A B C D E F G H I J K L M N O P Q R S T U V W X Y Z # 

Walk The Proud Land Bass tabs (ver.1)

Bob Marley Tabs
 Rating:
4/5 (4 votes)
Walk The Proud Land lessons Tabs too difficult? Try these video lessons and learn fast
                The main bassline for the tune goes like:

G----------------------------------
D----------------------------------
A-7-57-57----------7-57-57---------
E---------5(5)5(5)---------5(5)5(5)

The tune drops into the key of B every now and then for a couple rounds:

G----------------------------------
D----------------------------------
A----------------------------------
E-7-57-57-0(0)0(0)-7-57-57-0(0)0(0)

..but it kinda sounds like he's using a 5-string:

G----------------------------------
D----------------------------------
A----------------------------------
E-7-57-57----------7-57-57---------
B---------5-3-5(5)---------5-3-5(5)
            
Submit corrections

comments powered by Disqus
↑ Back to top | Bob Marley Bass for Walk The Proud Land. Lyrics for acoustic guitar and electric guitar. Tablatures and chords are parodies/interpretations of the original songs. You may use it for private study, scholarship, research or language learning purposes only