>
 >
Under The Coconut Tree

Under The Coconut Tree Bass Tabs

Bob Marley - Under The Coconut Tree chords, tabs, tablatures, lyrics

Guitar lessons | Add/correct | Request | Top 50 tabs Artists:  A B C D E F G H I J K L M N O P Q R S T U V W X Y Z 0-9

Under The Coconut Tree Bass Tabs – Bob Marley

CD, Sheet music, Poster

Do you like Under The Coconut Tree? Share with your friends now
Bass Tabs
Main riff     
G |---------------------------------------------------------------------
D |---------------------------------------------------------------------
A |---12-10-7-5----7-5----------4-5-------------------------------------
E |-7------------7------6--3-0---------3-2-0----------------------------

G |---------------------------------------------------------------------
D |---------------------------------------------------------------------
A |-4-5-----------------------------------------------------------------
E |-------3-3-5-5-------------------------------------------------------
                      
Chorus 
G |---------------------------------------------------------------------
D |---------------------------------------------------------------------
A |---------------------------------------------------------------------
E |-5~~-0--0-0-0--0-0-0--0----------------------------------------------
                                  
Solo 1 ( effected part )
G |---7h8----------------------8----------------------8h9---------------
D |-------8h10-----7h8-7---8---------7h8----8h10-*-*-------8-8-8h10-----
A |--------------------------7---------------------------------------3-3-3-3---3
E |---------------------------------------------------------------------

Solo 1                                                 
G |---------------------------------------------------------10------------
D |-------------------------------17-17-15-16-14-10-----------------------
A |--3/16--17\2---1/19-----19-18---------------------14-------------------
E |------------------------------------------------------12---------------

Solo 2 part 1                                       

G |----11-------9-8-/9------11------9/8------11---------9-11--/14-------11
D |--------9h11----------------9h11--------------0-9h11-----------------
A |-9------------------0--9----------------9----------------------0--9--
E |---------------------------------------------------------------------

G |---------------------11---------9-8-9-8---------9-14------------9----
D |--0-9h11----------------0--9h11---------0-----9------------9-11------
A |---------12-------9------------------------9------------9------------
E |-------------2-------------------------------------------------------

G |------9h11---------9-11-13-14----------------------------------------
D |-9h11---------9-11---------------------------------------------------
A |------------9--------------------------------------------------------
E |---------------------------------------------------------------------

Solo 2 part 2 (clean)
G |---------------------------------------------------------------------
D |---------------------------------------------------------------------
A |---------------------------------------------------------------------
E |--0--2-2---0--2-2--...---0-2-2-0-2/(10)--2-2-0-2/(14)----2-2-0-/(10)- etc..

Pre 2nd chorus                                                          
G |---------------------------------------------------------------------
D |---------------------------------------------------------------------
A |-7-7-7-----7-5-6-6------5-3-3-3-----3-2-2-2--5-5-5-5-----------------
E |-------7h9---------5h7---------3h5-----------------------------------





Comments


Popular Bob Marley tabs & chords
Them Belly Full 3 Bass Tabs
Three Little Birds Bass Tabs
Coming In From The Cold Chords
Hallelujah Time Chords
Kaya Chords
Rastaman Live Up Chords
Soul Captives Chords
Waiting In Vain 2 Chords
Could You Be Loved 1 Tabs
Waiting In Vain New Key Ukulele


Song lyrics



↑ Back to top | Tablatures and chords are parodies/interpretations of the original songs. You may use it for private study, scholarship, research or language learning purposes only
© 2014 AZChords.com Contact us | Privacy policy | DMCA | Add/correct tabs | Request tabs | Top 50 tabs