» » »

Bob Marley, Stop That Train Bass tabs (ver.1)

Artists:  A B C D E F G H I J K L M N O P Q R S T U V W X Y Z # 

Stop That Train Bass tabs (ver.1)

Bob Marley Tabs
Rating:
0/5 (0 votes)
Stop That Train lessons Tabs too difficult? Try these video lessons and learn fast
                Artist - Bob Marley & the Wailers (Tosh)
Title - Stop That Train
Album - Catch a Fire
Bass Tab


intro
G|-------------------------------------------------|
D|-------------------------------------------------|
A|-----------------3-5---------------------3-5-----|
E|-3--3333--3333-------(3)---3-3333--3333------(3)-|

chorus 1 (00:14)
G|----------------------------------------------------------|
D|------------------235--------------------------54---------|
A|----235--------3-----3--3-2------235--------5----7--5-3---|
E|-3-----3--33----------------5-3-----3--33---------------5-|

G|----------------------------------------------------------|
D|--------------------532------------------------77---------|
A|----235--------3-------3---------235-------5--------5-3---|
E|-3-----3--33-3----------------3-----3-33-3--------------5-|

G|----------------------------------------------|
D|--------------------532----------8-8------8---|
A|----235---------3------3-33-3--6-----6--68--6-|
E|-3-----3--33-3-------------------------6------|

G|-------------------------------------------------|
D|-------------------------------------------------|
A|-----------------3-5---------------------3-5-----|
E|-3--3333--3333-------(3)---3-3333--3333------(3)-|


verse 1 (1:02)
G|------------------------------------------------------------------|
D|-9-7--------97----------------------------------------------------|
A|----(10)------(10)---9-7-------97-----------(10)---(10)-----------|
E|------------------------(10)-----(10)-10-9-8------8------8-10-(3)-|

G|--------|
D|--------|
A|---22-3-|
E|-3------|

G|-----------------------------------------------------------------|
D|-9-7--------97---------------------------------------------------|
A|----9(10)-----(10)---9-7-------97-----------(10)---(10)----------|
E|------------------------(10)-----(10)-10-9-8------8-----8-10-(3)-|

G|-----------|
D|-----------|
A|---22-33-5-|
E|-3---------|

chorus 2 (1:29)
G|----------------------------------------------------------|
D|------------------235--------------------------77---------|
A|----235--------3-----3--3-2------235--------5-------5-3---|
E|-3-----3--33-3--------------5-3-----3--33-3-------------5-|

G|----------------------------------------------------------|
D|------------------532-------------------------------------|
A|----235--------3------3--3-2------235----------55---5-3---|
E|-3-----3--33-3---------------5-3-----3-33-3-------------5-|

G|-----------------------------------------------|
D|--------------------532----------8-8-------8---|
A|----235---------3------3-33-3--6-----6---68--6-|
E|-3-----3----33---------------------------------|

G|------------------------------------------------|
D|------------------------------------------------|
A|----------------3-5---------------------3-5-----|
E|-3--333-3-33-3------(3)---3-3333--3333------(3)-|

verse 2 (2:17)
G|------------------------------------------------------------------|
D|-9-7--------97----------------------------------------------------|
A|-----(10)-----(10)---9-7-------97-----------(10)---(10)-----------|
E|------------------------(10)-----(10)-10-9-8------8------8-10-(3)-|

G|--------|
D|--------|
A|---22-3-|
E|-3------|

G|-----------------------------------------------------------------|
D|-9-7--------97---------------------------------------------------|
A|----9(10)-----(10)---9-7-------97-----------(10)---(10)----------|
E|------------------------(10)-----(10)-10-9-8------8-----8-10-(3)-|

G|-----------|
D|-----------|
A|---22-33-5-|
E|-3---------|


chorus 3 (2:45)
G|-----------------------------------------------------------|
D|------------------235--------------------------754---------|
A|----235--------3-----3--3-2------235--------5-----5--5-3---|
E|-3-----3--33-3--------------5-3-----3--33-3--------------5-|

G|--------------------------------------------------------------|
D|------------------235------------------------------77-7-------|
A|----235--------3------3--3-2------235----------55-------5-3---|
E|-3-----3--33-3---------------5-3-----3-33-3-----------------5-|

G|-----------------------------------------------|
D|---------------------532----------8-(8)----8---|
A|----235----------3------3-33-3--6--------68--6-|
E|-3-----3----33-3-------------------------------|

chorus 4 (3:21)
G|--------------------------------------------------------------|
D|----------------------------35---------------------77---------|
A|-----------------3--3333--3--------235---------5--------5-3---|
E|-3--3333--3333------------------3-----3--33-3---------------5-|

G|---------------------------------------------------|
D|------------------32--532---------------------77-7-|
A|----235-------3----------3------------235---5------|
E|-3-----3--33-----------------3-333-3-----3---------|...fade out
            
Submit corrections

comments powered by Disqus
↑ Back to top | Bob Marley Bass for Stop That Train. Lyrics for acoustic guitar and electric guitar. Tablatures and chords are parodies/interpretations of the original songs. You may use it for private study, scholarship, research or language learning purposes only