» » »

Soul Rebel Bass tabs (ver.1)

Artists:  A B C D E F G H I J K L M N O P Q R S T U V W X Y Z # 

Soul Rebel Bass tabs (ver.1)

Bob Marley
Rating:
0/5 (0 votes)

Hard to play? Try these video lessons and learn fast.
                    Title - Soul Rebel
    Artist - Bob Marley & the Wailers

     intro;
  G|------------------------------------------------------|
  D|------------------------------------------------------|
  A|-4-4-4---2-3-44-44---4---4-2-2-2---0-1-22-22---2---2--|
  E|-------4-----------4---4---------2-----------2---2----|

  G|------------------------------------------|
  D|------------------------------------------|
  A|-4-4-4---2-3-44-44---4---4-2-2-2---0-1-2--|
  E|-------4-----------4---4---------2--------|

     chorus; (X2)
  G|------------------------------------------------------|
  D|------------------------------------------------------|
  A|-4-4-4---2-3-44-44---4---4--2-2-2---0-1-22-22---2--2--|
  E|-------4-----------4---4----------2-----------2---2---|

     verse; (X2)
  G|------------------------------------------------------|
  D|------------------------------------------------------|
  A|-2-2-2---0-1-22-22---2---2-4-4-4---2-3-44-44---4---4--|
  E|-------2-----------2---2---------4-----------4---4----|

  G|------------------------------------------------------|
  D|-2-2-2---2-3-44-44---4---4----------------------------|
  A|-------2-----------4---4---2-2-2---0-1-22-22---2---2--|
  E|---------------------------------2-----------2---2----|

     repeat chorus, verse until end
            
Hard to play? Try these video lessons and learn fast. | Correct




comments powered by Disqus
↑ Back to top | Tablatures and chords are parodies/interpretations of the original songs. You may use it for private study, scholarship, research or language learning purposes only