>
 >
The Times They Are A-changin

The Times They Are A-changin Guitar Tabs

Bob Dylan - The Times They Are A-changin chords, tabs, tablatures, lyrics

Guitar lessons | Add/correct | Request | Top 50 tabs Artists:  A B C D E F G H I J K L M N O P Q R S T U V W X Y Z 0-9

The Times They Are A-changin Guitar Tabs – Bob Dylan

CD, Sheet music, Poster

Do you like The Times They Are A-changin? Share with your friends now
Tabs


  (PLEASE NOTE: I TRANSLATED THIS TAB FROM THE CHORDS THAT ARE PROVIDED     FROM 
OTHERS I SPENT ALOT OF TIME ON THIS SO APPRECIATE IT! THANKS AND ENJOY)



Times they are a changing translated
     G             Em         C         G
Come gather 'round people wherever you  roam
e---3--3--3--3--0--0--0--0--0--0--3-3--3--3--3--3--|
B---3--3--3--3--0--0--0--1--1-1--3--3--3-3--3--3--|
G---4--4--4--4--0--0--0--0--0--0--4--4--4-4--4--4--| 
D---5--5--5-5--3--3--3--2--2--2--5--5--5-5--5--5--|
A---------------3--3--3--3--3--3--------------------|
E---------------3--3--3-----------------------------|
    G            Am      C              D
And admit that the waters around you have grown
E--3--3--3--3--0--0--0--0--0--0--2--2--2--2--2--2--2-|
B--3--3--3--3--1--1--1--1--1--1--3--3--3--3-3--3--3-|
G--4--4--4--4--2--2--0--0--0--0--2--2--2--2--2--2--2-|
D--5--5--5--5--2--2--2--2--2--2--0--0--0--0--0--0--0-|
A--------------x--x--3--3--3--3----------------------|
E--------------3--3----------------------------------|
      G            Em             C               G
And accept it that soon you'll be drenched to the bone
E----3--3--3--3--0--0--0--0--0--0--0--0--3--3--3--3--3--3---|
B----3--3--3--3--0--0--0--0--1--1--1--1--3--3--3--3--3--3---|
G----4--4--4--4--0--0--0--0--0--0--0--0--4--4--4--4--4--4---|
D----5--5--5--5--3--3--3--3--2--2--2--2--5--5--5--5--5--5---|
A----------------3--3--3--3--3--3--3--3---------------------|
E----------------3--3--3--3---------------------------------|

        G       Am           D
If your time to you is worth savin'
E-3--3--3--3--0--0--0---2--2--2--2--2--2-------------------|
B-3--3--3--3--1--1--1---3--3--3--3--3--3-------------------|
G-4--4--4--4--0--0--0---2--2--2--2--2--2-------------------|
D-5--5--5--5--2--2--2---0--0--0--0--0--0-------------------|
A-------------x--x--x--------------------------------------|
E-------------3--3--3--------------------------------------|

         D            D7                 G           D
Then you better start swimmin' or you'll sink like a stone,
E--2--2--2--2--2--3--3--3--3--3---3--3--3--2--2--2--2-------|
B--3-3--3--3--3--1-1--1--1--1---3--3--3--3--3--3-3-------|
G--2--2--2--2--2--2--2--2--2--2---4--4--4--2--2--2--2-------|
D--0--0--0--0--0------------------5--5--5--0--0--0--0-------|
A-----------------------------------------------------------|   
E-----------------------------------------------------------|




        G                 C    D  G
For the times, they are a chang - in'
E--2--3--3--3--3--3--0--0--2--3--3--3--3--3--3--3--3--------|
B--3--3--3--3--3--3-1--1--3--3--3--3--3--3--3--3--3--------|
G--2--4--4--4--4--4--0--0--2--4--4--4--4--4--4--4--4--------|
D--0--5--5--5--5--5--2--2--0--5--5--5--5--5--5--5--5--------|
A--------------------3--3-----------------------------------|
E-----------------------------------------------------------|


     G             Em         C         G
Come writers and critics who prophecize with your pen
e---3--3--3--3--0--0--0--0--0--0--3-3--3--3--3--3--|
B---3--3--3--3--0--0--0--1--1-1--3--3--3-3--3--3--|
G---4--4--4--4--0--0--0--0--0--0--4--4--4-4--4--4--| 
D---5--5--5-5--3--3--3--2--2--2--5--5--5-5--5--5--|
A---------------3--3--3--3--3--3--------------------|
E---------------3--3--3-----------------------------|
    G            Am      C              D
And keep your eyes wide the chance won't come again                      
E--3--3--3--3--0--0--0--0--0--0--2--2--2--2--2--2--2-|
B--3--3--3--3--1--1--1--1--1--1--3--3--3--3-3--3--3-|
G--4--4--4--4--2--2--0--0--0--0--2--2--2--2--2--2--2-|
D--5--5--5--5--2--2--2--2--2--2--0--0--0--0--0--0--0-|
A--------------x--x--3--3--3--3----------------------|
E--------------3--3----------------------------------|
      G            Em             C               G
And don't speak too soon for the wheel's still in spin
E----3--3--3--3--0--0--0--0--0--0--0--0--3--3--3--3--3--3---|
B----3--3--3--3--0--0--0--0--1--1--1--1--3--3--3--3--3--3---|
G----4--4--4--4--0--0--0--0--0--0--0--0--4--4--4--4--4--4---|
D----5--5--5--5--3--3--3--3--2--2--2--2--5--5--5--5--5--5---|
A----------------3--3--3--3--3--3--3--3---------------------|
E----------------3--3--3--3---------------------------------|

        G        Am          D
And there's  no  tellin' who that it's namin'                                  
E-3--3--3--3--0--0--0---2--2--2--2--2--2-------------------|
B-3--3--3--3--1--1--1---3--3--3--3--3--3-------------------|
G-4--4--4--4--0--0--0---2--2--2--2--2--2-------------------|
D-5--5--5--5--2--2--2---0--0--0--0--0--0-------------------|
A-------------x--x--x--------------------------------------|
E-------------3--3--3--------------------------------------|

 



        D            D7                 G          D
        For  the  loser  now  will  be  later  to  win
E--2--2--2--2--2--3--3--3--3--3---3--3--3--2--2--2--2-------|
B--3-3--3--3--3--1-1--1--1--1---3--3--3--3--3--3-3-------|
G--2--2--2--2--2--2--2--2--2--2---4--4--4--2--2--2--2-------|
D--0--0--0--0--0------------------5--5--5--0--0--0--0-------|
A-----------------------------------------------------------|   
E-----------------------------------------------------------|




        G                 C    D  G
For the times, they are a chang - in'
E--2--3--3--3--3--3--0--0--2--3--3--3--3--3--3--3--3--------|
B--3--3--3--3--3--3-1--1--3--3--3--3--3--3--3--3--3--------|
G--2--4--4--4--4--4--0--0--2--4--4--4--4--4--4--4--4--------|
D--0--5--5--5--5--5--2--2--0--5--5--5--5--5--5--5--5--------|
A--------------------3--3-----------------------------------|
E-----------------------------------------------------------|


     G             Em         C         G
     Come mothers and fathers throughout the land
e---3--3--3--3--0--0--0--0--0--0--3-3--3--3--3--3--|
B---3--3--3--3--0--0--0--1--1-1--3--3--3-3--3--3--|
G---4--4--4--4--0--0--0--0--0--0--4--4--4-4--4--4--| 
D---5--5--5-5--3--3--3--2--2--2--5--5--5-5--5--5--|
A---------------3--3--3--3--3--3--------------------|
E---------------3--3--3-----------------------------|
    G            Am      C              D
    And don't criticize  what you don't understand                                   
E--3--3--3--3--0--0--0--0--0--0--2--2--2--2--2--2--2-|
B--3--3--3--3--1--1--1--1--1--1--3--3--3--3-3--3--3-|
G--4--4--4--4--2--2--0--0--0--0--2--2--2--2--2--2--2-|
D--5--5--5--5--2--2--2--2--2--2--0--0--0--0--0--0--0-|
A--------------x--x--3--3--3--3----------------------|
E--------------3--3----------------------------------|
      G             Em            C              G
Your  sons and your daughters are beyond  your   command
E----3--3--3--3--0--0--0--0--0--0--0--0--3--3--3--3--3--3---|
B----3--3--3--3--0--0--0--0--1--1--1--1--3--3--3--3--3--3---|
G----4--4--4--4--0--0--0--0--0--0--0--0--4--4--4--4--4--4---|
D----5--5--5--5--3--3--3--3--2--2--2--2--5--5--5--5--5--5---|
A----------------3--3--3--3--3--3--3--3---------------------|
E----------------3--3--3--3---------------------------------|

       G       Am           D
  Your old road is rapidly again'
E-3--3--3--3--0--0--0---2--2--2--2--2--2-------------------|
B-3--3--3--3--1--1--1---3--3--3--3--3--3-------------------|
G-4--4--4--4--0--0--0---2--2--2--2--2--2-------------------|
D-5--5--5--5--2--2--2---0--0--0--0--0--0-------------------|
A-------------x--x--x--------------------------------------|
E-------------3--3--3--------------------------------------|

        D            D7                 G           D
 Please get out of the new one if you can't lend a hand
E--2--2--2--2--2--3--3--3--3--3---3--3--3--2--2--2--2-------|
B--3-3--3--3--3--1-1--1--1--1---3--3--3--3--3--3-3-------|
G--2--2--2--2--2--2--2--2--2--2---4--4--4--2--2--2--2-------|
D--0--0--0--0--0------------------5--5--5--0--0--0--0-------|
A-----------------------------------------------------------|   
E-----------------------------------------------------------|




        G                 C    D  G
For the times, they are a chang - in'
E--2--3--3--3--3--3--0--0--2--3--3--3--3--3--3--3--3--------|
B--3--3--3--3--3--3-1--1--3--3--3--3--3--3--3--3--3--------|
G--2--4--4--4--4--4--0--0--2--4--4--4--4--4--4--4--4--------|
D--0--5--5--5--5--5--2--2--0--5--5--5--5--5--5--5--5--------|
A--------------------3--3-----------------------------------|
E-----------------------------------------------------------|

     G             Em         C         G
Come senators, congressmen please heed the call
e---3--3--3--3--0--0--0--0--0--0--3-3--3--3--3--3--|
B---3--3--3--3--0--0--0--1--1-1--3--3--3-3--3--3--|
G---4--4--4--4--0--0--0--0--0--0--4--4--4-4--4--4--| 
D---5--5--5-5--3--3--3--2--2--2--5--5--5-5--5--5--|
A---------------3--3--3--3--3--3--------------------|
E---------------3--3--3-----------------------------|
    G            Am      C              D
Don't stand in the doorway, don't block up the hall
E--3--3--3--3--0--0--0--0--0--0--2--2--2--2--2--2--2-|
B--3--3--3--3--1--1--1--1--1--1--3--3--3--3-3--3--3-|
G--4--4--4--4--2--2--0--0--0--0--2--2--2--2--2--2--2-|
D--5--5--5--5--2--2--2--2--2--2--0--0--0--0--0--0--0-|
A--------------x--x--3--3--3--3----------------------|
E--------------3--3----------------------------------|
      G            Em             C               G
  For he that gets hurt will be he who has stalled
E----3--3--3--3--0--0--0--0--0--0--0--0--3--3--3--3--3--3---|
B----3--3--3--3--0--0--0--0--1--1--1--1--3--3--3--3--3--3---|
G----4--4--4--4--0--0--0--0--0--0--0--0--4--4--4--4--4--4---|
D----5--5--5--5--3--3--3--3--2--2--2--2--5--5--5--5--5--5---|
A----------------3--3--3--3--3--3--3--3---------------------|
E----------------3--3--3--3---------------------------------|

        G        Am           D
There's a battle outside and it's ragin'
E-3--3--3--3--0--0--0---2--2--2--2--2--2-------------------|
B-3--3--3--3--1--1--1---3--3--3--3--3--3-------------------|
G-4--4--4--4--0--0--0---2--2--2--2--2--2-------------------|
D-5--5--5--5--2--2--2---0--0--0--0--0--0-------------------|
A-------------x--x--x--------------------------------------|
E-------------3--3--3--------------------------------------|

         D            D7                 G          D
It'll soon shake your windows and rattle your walls
E--2--2--2--2--2--3--3--3--3--3---3--3--3--2--2--2--2-------|
B--3-3--3--3--3--1-1--1--1--1---3--3--3--3--3--3-3-------|
G--2--2--2--2--2--2--2--2--2--2---4--4--4--2--2--2--2-------|
D--0--0--0--0--0------------------5--5--5--0--0--0--0-------|
A-----------------------------------------------------------|   
E-----------------------------------------------------------|




        G                 C    D  G
For the times, they are a chang - in'
E--2--3--3--3--3--3--0--0--2--3--3--3--3--3--3--3--3--------|
B--3--3--3--3--3--3-1--1--3--3--3--3--3--3--3--3--3--------|
G--2--4--4--4--4--4--0--0--2--4--4--4--4--4--4--4--4--------|
D--0--5--5--5--5--5--2--2--0--5--5--5--5--5--5--5--5--------|
A--------------------3--3-----------------------------------|
E-----------------------------------------------------------|

     G             Em         C         G
The line it is drawn the curse it is cast
e---3--3--3--3--0--0--0--0--0--0--3-3--3--3--3--3--|
B---3--3--3--3--0--0--0--1--1-1--3--3--3-3--3--3--|
G---4--4--4--4--0--0--0--0--0--0--4--4--4-4--4--4--| 
D---5--5--5-5--3--3--3--2--2--2--5--5--5-5--5--5--|
A---------------3--3--3--3--3--3--------------------|
E---------------3--3--3-----------------------------|
   
     G            Am     C              D
     The slow one now will later be fast
E--3--3--3--3--0--0--0--0--0--0--2--2--2--2--2--2--2-|
B--3--3--3--3--1--1--1--1--1--1--3--3--3--3-3--3--3-|
G--4--4--4--4--2--2--0--0--0--0--2--2--2--2--2--2--2-|
D--5--5--5--5--2--2--2--2--2--2--0--0--0--0--0--0--0-|
A--------------x--x--3--3--3--3----------------------|
E--------------3--3----------------------------------|
      G             Em             C               G
              As the present now will later be past
E----3--3--3--3--0--0--0--0--0--0--0--0--3--3--3--3--3--3---|
B----3--3--3--3--0--0--0--0--1--1--1--1--3--3--3--3--3--3---|
G----4--4--4--4--0--0--0--0--0--0--0--0--4--4--4--4--4--4---|
D----5--5--5--5--3--3--3--3--2--2--2--2--5--5--5--5--5--5---|
A----------------3--3--3--3--3--3--3--3---------------------|
E----------------3--3--3--3---------------------------------|

        G       Am           D
    The order is rapidly fadin'
E-3--3--3--3--0--0--0---2--2--2--2--2--2-------------------|
B-3--3--3--3--1--1--1---3--3--3--3--3--3-------------------|
G-4--4--4--4--0--0--0---2--2--2--2--2--2-------------------|
D-5--5--5--5--2--2--2---0--0--0--0--0--0-------------------|
A-------------x--x--x--------------------------------------|
E-------------3--3--3--------------------------------------|

         D            D7                 G           D
    And the first one now will later be  last
E--2--2--2--2--2--3--3--3--3--3---3--3--3--2--2--2--2-------|
B--3-3--3--3--3--1-1--1--1--1---3--3--3--3--3--3-3-------|
G--2--2--2--2--2--2--2--2--2--2---4--4--4--2--2--2--2-------|
D--0--0--0--0--0------------------5--5--5--0--0--0--0-------|
A-----------------------------------------------------------|   
E-----------------------------------------------------------|




        G                 C    D  G
For the times, they are a chang - in'
E--2--3--3--3--3--3--0--0--2--3--3--3--3--3--3--3--3--------|
B--3--3--3--3--3--3-1--1--3--3--3--3--3--3--3--3--3--------|
G--2--4--4--4--4--4--0--0--2--4--4--4--4--4--4--4--4--------|
D--0--5--5--5--5--5--2--2--0--5--5--5--5--5--5--5--5--------|
A--------------------3--3-----------------------------------|
E-----------------------------------------------------------|





Comments


Popular Bob Dylan tabs & chords
Like A Rolling Stone Bass Tabs
Ill Be Your Baby Tonight 2 Chords
The Times They Are A-changin 6 Chords
Blowing In The Wind 2 Tabs
Dont Think Twice 1 Tabs
Milk Cows Half Blues Tabs
My Back Pages Tabs
Sara 1 Tabs
Watching The River Flow Tabs
What Good Am I Tabs


Song lyrics



↑ Back to top | Tablatures and chords are parodies/interpretations of the original songs. You may use it for private study, scholarship, research or language learning purposes only
© 2014 AZChords.com Contact us | Privacy policy | DMCA | Add/correct tabs | Request tabs | Top 50 tabs