>
 >
Tangled Up In Blue

Tangled Up In Blue Bass Tabs

Bob Dylan - Tangled Up In Blue chords, tabs, tablatures, lyrics

Guitar lessons | Add/correct | Request | Top 50 tabs Artists:  A B C D E F G H I J K L M N O P Q R S T U V W X Y Z 0-9

Tangled Up In Blue Bass Tabs – Bob Dylan

CD, Sheet music, Poster

Do you like Tangled Up In Blue? Share with your friends now
Bass TabsChordsChords v2Chords v3Chords v4Chords v5Tabs
G||-------|-------|-------|-------|-------|-------|-------|-------|
D||-------|-------|-------|-------|-------|-------|-------|-------|
A||-------|-------|-------|-------|-------|-------|-------|-------|
E||-------|-------|-------|-------|-------|-------|-------|-------|


  Q    E  E     H           Q    E  E     H           Q    E  E     H         
-------------|-----------|-------------|-----------|-------------|-----------|
-------------|--0--------|-------------|--0--------|-------------|--0--------|
--5----L--5--|-----------|--5----L--5--|-----------|--5----L--5--|-----------|
-------------|-----------|-------------|-----------|-------------|-----------|


  H           Q    Q       Q    E  E     Q    E  E     Q    E  E   
-----------|------------|-------------|-------------|-------------|
-----------|------------|-------------|-------------|-------------|
-----------|------------|-------------|-------------|--5-------5--|
--3--------|--L----2----|--5-------5--|--7-------7--|-------------|


  Q    E  E     Q    E  E     Q    E  E     Q    E  E     Q    E  E   
-------------|-------------|-------------|-------------|-------------|
-------------|-------------|-------------|-------------|-------------|
-------------|-------------|-------------|--5-------5--|-------------|
--3-------3--|--5-------5--|--7-------7--|-------------|--3-------3--|


  Q    Q       Q    Q       Q    Q       Q    Q       H           H         
------------|------------|------------|------------|-----------|-----------|
------------|--4----7----|------------|-------4----|-----------|-----------|
------------|------------|--3---------|--5---------|--5--------|--5--------|
--5----5----|------------|-------3----|------------|-----------|-----------|


  H           H           H           H           Q     Q         Q    E  E   
-----------|-----------|-----------|-----------|-------------||--------------|
-----------|-----------|-----------|-----------|-------------||*-------------|
--5--------|--5--------|--5--------|--5--------|--9----12----||*--5----L--5--|
-----------|-----------|-----------|-----------|-------------||--------------|


  H           Q    E  E     H           Q    E  E     H           Q    E  E   
-----------|-------------|-----------|-------------|-----------|-------------|
--0--------|-------------|--0--------|-------------|--0--------|-------------|
-----------|--5----L--5--|-----------|--5----L--5--|-----------|-------------|
-----------|-------------|-----------|-------------|-----------|--3-------2--|


  H           Q    E  E     H           Q    E  E     H           Q    E  E   
-----------|-------------|-----------|-------------|-----------|-------------|
-----------|-------------|--0--------|-------------|--0--------|-------------|
-----------|--5----L--5--|-----------|--5----L--5--|-----------|--5----L--5--|
--3--------|-------------|-----------|-------------|-----------|-------------|


  H           Q    E  E     H           Q    Q       Q    Q       Q    Q     
-----------|-------------|-----------|------------|------------|------------|
--0--------|-------------|-----------|------------|------------|------------|
-----------|-------------|-----------|------------|------------|--5----5----|
-----------|--3-------2--|--3--------|--5----5----|--7----7----|------------|


  H           Q    Q       Q    Q       Q    Q       Q    Q       Q    Q     
-----------|------------|------------|------------|------------|------------|
-----------|------------|------------|------------|------------|------------|
-----------|------------|------------|--5----5----|------------|------------|
--3--------|--5----5----|--7----7----|------------|--3----3----|--5----5----|


  E    E   E  E     Q    Q       H           H           H           H         
-----------------|------------|-----------|--7--------|-----------|--7--------|
-----------------|------------|-----------|-----------|-----------|-----------|
----------12--9--|--3---------|--5--------|-----------|--5--------|-----------|
--5S--10---------|-------3----|-----------|-----------|-----------|-----------|


  H           H           Q     Q       Q    Q     8x  H          
-----------|--7--------|-------------|-------------||-----------||
-----------|-----------|-------------|-------4----*||-----------||
--5--------|-----------|-------------|--9---------*||--5--------||
-----------|-----------|--3S----5----|-------------||-----------||




Duration Legend
---------------
W - whole
H - half
Q - quarter
E - 8th
S - 16th
T - 32nd
X - 64th
. - note dotted
|-n-|  - n-tuplets


Tablature Legend
----------------
L - tied note
x - dead note
g - grace note
(n) - ghost note
> - accentuded note
NH - natural harmonic
AH - artificial harmonic
TH - tapped harmonic
SH - semi harmonic
PH - pitch harmonic
h - hammer on
p - pull off
b - bend
br - bendRelease
pb - preBend
pbr - preBendRelease
brb - bendReleaseBend
\n/ - tremolo bar dip
\n - tremolo bar dive
-/n - tremolo bar Release up
/n\ - tremolo bar inverted dip
/n - tremolo bar return
-\n - tremolo bar Release down
S - shift slide
s - legato slide
/ -  slide into from below or out of upwards
\ -  slide into from above or out of downwards
~ - vibrato
W - wide vibrato
tr - trill
TP - tremolo picking
T - tapping
S - slap
P - pop
< - fade in
^ - brush up
v - brush down





Comments


Popular Bob Dylan tabs & chords
Gonna Change My Way Of Thinking Bass Tabs
I Shall Be Free No 10 Chords
Jokerman Chords
Subterranean Homesick Blues 2 Chords
Visions Of Johanna 2 Chords
Cuckoo Is A Pretty Bird Tabs
Its Alright Ma 1 Tabs
Positively 4th Street Tabs
Sweetheart Like You Tabs
Temporary Like Achilles Tabs


Song lyrics



↑ Back to top | Tablatures and chords are parodies/interpretations of the original songs. You may use it for private study, scholarship, research or language learning purposes only
© 2014 AZChords.com Contact us | Privacy policy | DMCA | Add/correct tabs | Request tabs | Top 50 tabs