» » »

House Of The Rising Sun Tabs (ver.1)

Artists:  A B C D E F G H I J K L M N O P Q R S T U V W X Y Z # 

House Of The Rising Sun Tabs (ver.1)

Bob Dylan
Rating:
0/5 (0 votes)

Hard to play? Try these video lessons and learn fast.
                This is my first tab so yea its good lol

        Holding A minor            Holding C            holding D       Holding F
------------------0------------------------0------------2--------------1------
---------------1-----1-----------------1------1-------1-------------1-----1------
------------2-----------2-----------0---------------2------------2--------------
-----2----------------------------2--------------2---------0--3----------------
---------0-------------------0-3---------------------------------------------


           Holding A minor         Holding C       Holding E major  Holding E major
----------------0-------------------0---------------------0-------0-------------
-------------1----1--------------1----1---------------0-----------0-------------
----------2-------------------0-------------------2---------------1------------
----3--2----------------------------------------------------------2-------------
----------------------0---3----------------3--2-------------------2--------------


PEACE!!
            
Hard to play? Try these video lessons and learn fast. | Correct




comments powered by Disqus
↑ Back to top | Tablatures and chords are parodies/interpretations of the original songs. You may use it for private study, scholarship, research or language learning purposes only