» » »

Bob Dylan, Buckets Of Rain Tabs (ver.2)

Artists:  A B C D E F G H I J K L M N O P Q R S T U V W X Y Z # 

Buckets Of Rain Tabs (ver.2)

Bob Dylan Tabs
 Rating:
4/5 (4 votes)
Buckets Of Rain lessons Tabs too difficult? Try these video lessons and learn fast
1
                Bob Dylan - Buckets Of Rain

[EAEGBE] Tuning : No Capo

I have tabbed this out as I was originally taught to play it, I know its not how Dylan 
does it but it is a lot easier to play and
still sounds as great as his. The tuning is EAEGBE
(I dont know what thats called) you just have to tune up the D string to an E.


The Finger picking technique:
Thumb continually plays alternating bass notes whilst fingers play top 3 strings.


Riff.1

E|----2---2/4---------------0-------|
B|----------------------0-----------|
G|--2-----2/4---------2-------------| X2
E|------0---------0-------0-------0-|
A|----------------------------------|
E|--0---------0-------0-------0-----|


Riff.2

E|--------0---------2p0---0h2p0---0-|--------------0-----------------|
B|--2-------------------2-------2---|--------------------------------|
G|----2-----------------------------|--------2/4---------------------|
E|------0-------0-------0-------0---|----0-------0-------0-------0---|
A|--0-------0-------0-------0-------|--------------------------------|
E|----------------------------------|0-------0-------0-------0-------|


Riff.3

E|----7-------5-------0-----------0-|--------------0-----------------|
B|----------------------------0-----|--------------------------------|
G|--8-------6-------4-------2-------|--------2/4---------------------|
E|------0-------0-------0-------0---|----0-------0-------0-------0---|
A|----------------------------------|--------------------------------|
E|--7-------5-------4-------2-------|0-------0-------0-------0-------|


Riff.4

E|----10--10/12---------------0---------|
B|------------------------0-------------|
G|--11----11/13---------2---------------| X2
E|------0-----------0-------0-------0---|
A|--------------------------------------|
E|--0-----------0-------0-------0-------|


And I just want to thank #chris flatly# as I used his version of the song as a template, 
and it made tabbing this out a lot easier!

Key

h = hammer on
p = pull off
/ = slide up
\ = slide down
~ = let note ring
x = mute
            
Submit corrections

comments powered by Disqus
↑ Back to top | Bob Dylan Tabs for Buckets Of Rain. Lyrics for acoustic guitar and electric guitar. 1 Tablatures and chords are parodies/interpretations of the original songs. You may use it for private study, scholarship, research or language learning purposes only