» » »

Blur, Song Number Tabs (ver.1)

Artists:  A B C D E F G H I J K L M N O P Q R S T U V W X Y Z # 

Song Number Tabs (ver.1)

Blur Tabs
Rating:
0/5 (0 votes)
Song Number lessons Tabs too difficult? Try these video lessons and learn fast
                Band - Blur
Song - Song 2
TUNING - Tune your E A D G-Strings half a step down
I heard the song and realized that all the Tabs right here are played to high, so here is the right version! ENJOY!

Play this for Intro and Verses
G|6-6-6-4-4-9-9--11-11--13-13--------------------------------|
D|4-4-4-2-2-7-7--9--9---11-11--------------------------------|


Chorus
intro-
|--------------------------------------------|
|--------------------------------------------|
|-------------------2-2---4-4----6-6---------|
|-4-4-4-4--2-2-2-2--2-2---4-4----6-6---------|
|-4-4-4-4--2-2-2-2--0-0---2-2----4-4---------|
|-2-2-2-2--0-0-0-0---------------------------|


This is all
Have fun!
            
Submit corrections

comments powered by Disqus
↑ Back to top | Blur Tabs for Song Number. Lyrics for acoustic guitar and electric guitar. Tablatures and chords are parodies/interpretations of the original songs. You may use it for private study, scholarship, research or language learning purposes only