» » »

Bang Bass tabs (ver.1)

Artists:  A B C D E F G H I J K L M N O P Q R S T U V W X Y Z # 

Bang Bass tabs (ver.1)

Blur
Rating:
0/5 (0 votes)

Hard to play? Try these video lessons and learn fast.
                   BLUR - BANG



(Guitar intro) x4

(Drums come in) x4

Last turn
G|-----------------------------------------------------------------/4-/4-|
D|-----------------------------------------------------------------------|
A|-----------------------------------------------------------------------|
E|-----------------------------------------------------------------------|



Verse, x5
G|-/7-------------------7-9-12-------------------------------------------|
D|------9---7\6/7---7------------12-9--9h12------------------------------|
A|-----------------------------------------------------------------------|
E|-----------------------------------------------------------------------|

G|-7/9-7-----------------------------------------------------------------|
D|---------/9--7-------7-9--9---7/9---7/9\7/9----------------------------|
A|---------------9/12----------------------------------------------------|
E|-----------------------------------------------------------------------|



Chorus, x2
G|-----------------------------------------------------------------------|
D|-----------------------------------------------------------------------|
A|---------0-4---0-2--2-2----------------------7-777-7--7---7------------|
E|-0-2---2---------------------5-555-5-5-555-5--------9---9--------------|



Verse, x3

Chorus, x2

Break = Chorus, x2

Verse, x2



Bridge
G|-----------------------------------------------------------------------|
D|---------------------------------------------------12\9----------------|
A|----------------------------------------------------------9\6---5\2----|
E|-----------------------------------------------------------------------|



Chorus, x4



End
G|-----------------------------------------------------------------------|
D|--------------12\9-----------------12\9--------------------------------|
A|---------------------9\6---5\2------------9\6---5\2-----2--------------|
E|-7\--------------------------------------------------------------------|
            
Hard to play? Try these video lessons and learn fast. | Correct




comments powered by Disqus
↑ Back to top | Tablatures and chords are parodies/interpretations of the original songs. You may use it for private study, scholarship, research or language learning purposes only