>
 >
Badhead

Badhead Guitar Tabs

Blur - Badhead chords, tabs, tablatures, lyrics

Guitar lessons | Add/correct | Request | Top 50 tabs Artists:  A B C D E F G H I J K L M N O P Q R S T U V W X Y Z 0-9

Badhead Guitar Tabs – Blur

CD, Sheet music, Poster

Do you like Badhead? Share with your friends now
Bass TabsBass Tabs v2ChordsTabsUkulele
Intro:

E------------|
B------------|
G-2h3-0-3----|
D------------|
A------------|
E------------|

Verse 1:

E--3-----3--3--3-           E--3-----3--3--2/3------3-3-3-3--3--3-|
B----0-----1--1--           B----0--1--1------3-2-0---------1--1--|
G-0----0--0--0---(7x) then  G-0----0--0---------------------------|
D----------------           D-------------------------------------|
A----------------           A-------------------------------------|
E----------------           E-------------------------------------|

Then:

E------3-------3---------3-------3------      --3-3-3-3---3---3--|
B--0-------0---------1-------1---------- (2x) ----------1---1----|
G----0-------0---0-----0-------0---0----      -------------------|
D---------------------------------------      -------------------|
A---------------------------------------      -------------------|
E---------------------------------------      -------------------|

Verse 2:

E--3-----3--3--3-           E--3----3--3--2/3------3-3-3-3--3--3-|
B----0-----1--1--           B----0-----------3-2-0---------1--1--|
G-0----0--0--0---(3x) then  G-0----0--0--------------------------|
D----------------           D------------------------------------|
A----------------           A------------------------------------|
E----------------           E------------------------------------|

Then:

E------3-------3---------3-------3------      --3-3-3-3---3---3--|
B--0-------0---------1-------1---------- (2x) ----------1---1----|
G----0-------0---0-----0-------0---0----      -------------------|
D---------------------------------------      -------------------|
A---------------------------------------      -------------------|
E---------------------------------------      -------------------|

Solo:

Strum slowly, G.

Then,

Strum slowly, C.

Then,

E-----------3----|
B-------0h1------|
G-----0----------|
D---2------------|
A-3--------------|
E----------------|

E---------------------------------------13------------15--|
B-------------------------------------11------------13----|
G---------------7--9--11--14--------13------------15------| (2x)
D--5--7--9--11--5--7--9---12------11------------13--------|
A--3--5--7--9-------------------13------------15----------|
E-----------------------------12------------14------------|

Chrous:

E-----------------------------------------|
B--12-11-9-11-12-11-9-11-12-14------------|
G-----------------------------------------|
D-----------------------------------------|
A-----------------------------------------|
E-------------------------------13-12-10--|

E---------------------------|
B--11-12-11-9---------------|
G------------9-8-6-5-0-2h3--|
D---------------------------|
A---------------------------|
E---------------------------|

E-----------------------------------------|
B--12-11-9-11-12-11-9-11-12-14------------|
G-----------------------------------------|
D-----------------------------------------|
A-----------------------------------------|
E-------------------------------13-12-10--|

E---------------------------|
B--11-12-11-9---------------|
G------------9-8-6-5-0-2h3--|
D---------------------------|
A---------------------------|
E---------------------------|

Ending:

Strum slowly, G.

Then,

Strum slowly, C.

Then,

E-------------3----|
B---------1h3------|
G------------------|
D-2---2------------|
A---3--------------|
E------------------|

This is my first tab by the way...





Comments


Popular Blur tabs & chords
Beetlebum Chords
Coffee And Tv 1 Chords
For Tomorrow Chords
The Universal Chords
To The End Chords
Ultranol Chords
Beetlebum 2 Tabs
Birthday Tabs
Song 2 Intro 2 Tabs
Alexs Song Ukulele


Song lyrics



↑ Back to top | Tablatures and chords are parodies/interpretations of the original songs. You may use it for private study, scholarship, research or language learning purposes only
© 2014 AZChords.com Contact us | Privacy policy | DMCA | Add/correct tabs | Request tabs | Top 50 tabs