» » »

Foggy Mountain Breakdown Tabs (ver.2)

Artists:  A B C D E F G H I J K L M N O P Q R S T U V W X Y Z # 

Foggy Mountain Breakdown Tabs (ver.2)

Bluegrass
Rating:
0/5 (0 votes)

Hard to play? Try these video lessons and learn fast.
                Foggy Mountain Breakdown 

This version of Foggy Mountain Breakdown is based on the 
first part of the version played by Randy Scruggs on the 
new Earl Scruggs and Friend's CD.


E-3---3-----3---3-----3---3--------------------------------|
B-2h3-2h3---2h3-2h3---2h3-2h3-----------0-------0----------|
G-----------------------------3p2--------0-------0---------|
D---------------------------------0-1h2---2-1h2---2--------|
A----------------------------------------------------------|
E----------------------------------------------------------|

E----------------------------------------------------------|
B------------------------slowly increase-speed-of-pulloff's|
G-3bp2p0-3bp2p0-3bp2p0-0--(3bp2p0-3bp2p0-3bp2p0-3bp2p0-----|
D------------------------0---------------------------------|
A----------------------------------------------------------|
E----------------------------------------------------------|

E----------------------------------------------------------|
B----------------------------------------------------------|
G-3bp2p0-3bp2p0-3bp2p0)-------4-2-0------------------------|
D-----------------------0-1h2------------------------------|
A----------------------------------------------------------|
E----------------------------------------------------------|

For the more traditional version take out the bends and
pulloff riff and continue with the banjo roll.  The chords
are G Em G Em G D or something like that.
            
Hard to play? Try these video lessons and learn fast. | Correct




comments powered by Disqus
↑ Back to top | Tablatures and chords are parodies/interpretations of the original songs. You may use it for private study, scholarship, research or language learning purposes only