» » »

You Have Me Like Violence Tabs (ver.1)

Artists:  A B C D E F G H I J K L M N O P Q R S T U V W X Y Z # 

You Have Me Like Violence Tabs (ver.1)

*Blink 182*
Rating:
0/5 (0 votes)

Hard to play? Try these video lessons and learn fast.
                band blink 182
song violence
 
song begin with drum

Intro (low volume with disorted)
e-----------------
B-----------------
G-----------------
D-999999999999----x4
A-xxxxxxxxxxxx----
E-777777777777----

Verse: 
e----------------------------
B----------------------------
G----------------------------
D-9-------9-------9-------9--
A-x-------x-------x-------x--
E-7-------7-------7-------7--

Chorus  (disorted)
e----------------------------------------------
B----------------------------------------------
G----------------------------------------------
D-99999999-11-11-11-11-11-66666666-88888888----x2
A-xxxxxxxx-x--x--x--x--x--xxxxxxxx-xxxxxxxx----
E-77777777-9--9--9--9--9--44444444-66666666----

Verse 2:
e----------------------------
B----------------------------
G----------------------------
D-9-------9-------9-------9--
A-x-------x-------x-------x--
E-7-------7-------7-------7--




Chorus (distorted)
e----------------------------------------------
B----------------------------------------------
G----------------------------------------------
D-99999999-11-11-11-11-11-66666666-88888888----x2
A-xxxxxxxx-x--x--x--x--x--xxxxxxxx-xxxxxxxx----
E-77777777-9--9--9--9--9--44444444-66666666----

Interlude: Clean Tone
e--------------------------------------------------------------
B--------------------------------------------------------------
G--------------------------------------------------------------
D-----4----4---4-----6----6---6-----8-----8---8-----6----6---6-x5
A-2-2—-2-2---2---4-4--4-4—--4---6-6---6-6---6---4-4--4-4—--4---
E--------------------------------------------------------------


Chorus  (low volume with distorted)
e----------------------------------------------
B----------------------------------------------
G----------------------------------------------
D-99999999-11-11-11-11-11-66666666-88888888----x4
A-xxxxxxxx-x--x--x--x--x--xxxxxxxx-xxxxxxxx----
E-77777777-9--9--9--9--9--44444444-66666666----

Outro (disrted)
e-----------------
B-----------------
G-----------------
D-999999999999---- until ends
A-xxxxxxxxxxxx----
E-777777777777----
            
Hard to play? Try these video lessons and learn fast. | Correct




comments powered by Disqus
↑ Back to top | Tablatures and chords are parodies/interpretations of the original songs. You may use it for private study, scholarship, research or language learning purposes only