>
 >
What Went Wrong 2

What Went Wrong 2 Guitar Tabs

*Blink 182* - What Went Wrong 2 chords, tabs, tablatures, lyrics

Guitar lessons | Add/correct | Request | Top 50 tabs Artists:  A B C D E F G H I J K L M N O P Q R S T U V W X Y Z 0-9

What Went Wrong 2 Guitar Tabs – *Blink 182*

CD, Sheet music, Poster

Do you like What Went Wrong 2? Share with your friends now
Tabs
_____________________________________________________

_____________________________________________________
 ps copy to notepad and ALWAYS use (ANDALE MONO)font


 



   BLINK 182----------- *WHAT WENT WRONG?*    (accoustic)


             ******INTRO*******
*I* E--------------------------------------------------
*N* B--------------------------------------------------
*T* G--------------------------------------------------
*R* D-------9---7--------------9---7-------------------  x4
*O* A---7------------------7---------------------------
    E--------------------------------------------------


*I* E--------------------------------------------------
*N* B--------------------------------------------------
*T* G----------------------------------7-7-7-7---------
*R* D---7-7-7-7-7-7-7-7----4-4-4-4-----7-7-7-7--------- x2
*O* A---7-7-7-7-7-7-7-7----4-4-4-4-----5-5-5-5---------
    E---5-5-5-5-5-5-5-5----2-2-2-2---------------------
             (A)            (F#)        (D)
       
       (Im kicking)
        (Out fiercely at the world around me) 
         (What went wrong?) ***sing this at the end*****




              *****verse*****
E--------------------------------------------------
B--------------------------------------------------
G--------------------------9-9-9-9-----7-7-7-7-----
D--7-7-7-7-----4-4-4-4-----9-9-9-9-----7-7-7-7----- x2
A--7-7-7-7-----4-4-4-4-----7-7-7-7-----5-5-5-5-----
E--5-5-5-5-----2-2-2-2-----------------------------
    (A)         (F#)         (E)         (D)

[1]  Im sick...of always hearing....
     all those sad songs...on the radio
     All day...It is there to remind 
     Another sensitive guy...
     .......That is lost and alone yeah


[2]  I hate...a favourite restauraunt
     A favourite movie..our favourite show...
     We would...stay up all through the night...
     We would laugh and get high 
     ................and never answer the phone

[3]  Im sick...of always hearing
     Sappy love songs...on the radio
     This place is fukin cursed and its plagued
     and i can never escape
     ..............when my heartache explodes




 ************************chorus**************************
 *                                                      *
 *   E--------------------------------------------------*
 *   B--------------------------------------------------*
 *   G--------------------------------7-7-7-7-----------*
 *   D--7-7-7-7---6-6-6-6---4-4-4-4---7-7-7-7-----------*
 *   A--7-7-7-7---7-7-7-7---4-4-4-4---5-5-5-5-----------*
 *   E--5-5-5-5---4-4-4-4---2-2-2-2---------------------*
 *        (A)      (G#)       (F#)      (D)             *
 *	                                               *
 *     CHORUS I cant forgive..cant forget               *
 *            Cant give in to what went wrong           *
 *            Cos you said this was right               *
 *            You fuked up my life                     -*
 ********************************************************




             ***Instrumental****** (D5)
E-----0----|---------|-----0----|---------|
B----------|-----2---|----------|-----2---|
G---2---2--|--2----2-|---2---2--|--2----2-|
D----------|---------|----------|---------|
A----------|---------|----------|---------|
E-2--------|2--------|-2--------|2--------|


E-----0----|---------|-----0----|---------|
B----------|-----2---|----------|-----2---|
G---2---2--|---2---2-|---2---2--|---2---2-|
D-0--------|-0-------|-0--------|-0-------|
A----------|---------|----------|---------|
E----------|---------|----------|---------|

E----0-----|---------|----0-----|---------|
B----------|-----2---|----------|-----2---|
G--2---2---|---2---2-|--2---2---|---2---2-|
D----------|---------|----------|---------|
A-0--------|-0-------|-2--------|--2------|
E----------|---------|----------|---------|

E-----------------------------------
B------2-----2----2------2--2222----
G---2-----2-----2-----2-----2222----
D-0-----0-----0-----0-------0000----
A------------------------------------
E-----------------------------------

E------------------------------------|----------------------
B------------------------------------|----------------------
G-------------7-7-7-7----------------|--9-9-9-9---7-7-7-7---
D--4-4-4-4----7-7-7-7--7-7-7-7-------|--9-9-9-9---7-7-7-7---
A--4-4-4-4----5-5-5-5--7-7-7-7---X2--|--7-7-7-7---5-5-5-5---
E--2-2-2-2-------------5-5-5-5-------|----------------------
   (F#)         (D)      (A)              (E)       (D5)

____________________________
June 10th 2001              |
(Kev 16 Male) IRISH         |
My tabs are always right    |
____________________________|
...songs taken from blink 182 Take Off Your Pants And Jacket





Comments


Popular *Blink 182* tabs & chords
A Letter To Elise Bass Tabs
Carousel Live Bass Tabs
Adams Song Chords
Even If She Falls Chords
Dammit Drum Tabs
Adams Song Live Tabs
Enthused Tabs
Family Reunion 4 Tabs
First Date 3 Tabs
Mnms Intro Tabs


Song lyrics



↑ Back to top | Tablatures and chords are parodies/interpretations of the original songs. You may use it for private study, scholarship, research or language learning purposes only
© 2014 AZChords.com Contact us | Privacy policy | DMCA | Add/correct tabs | Request tabs | Top 50 tabs