» » »

*Blink 182*, What Went Wrong Tabs (ver.7)

Artists:  A B C D E F G H I J K L M N O P Q R S T U V W X Y Z # 

What Went Wrong Tabs (ver.7)

*Blink 182* Tabs
 Rating:
4/5 (4 votes)
What Went Wrong lessons Tabs too difficult? Try these video lessons and learn fast
1
                Intro (Clean Guitar)
E|-----------------------------------------------------------
B|-----------------------------------------------------------     X6
G|-----------------------------------------------------------
D|-----------9------7-------------------9------7-------------
A|----7--------------------------7---------------------------
E|-----------------------------------------------------------

A the intro continues a second guitar starts playing
RIFF 1
E|------------------------------------------------------------
B|------------------------------------------------------------
G|---------------------------------------------7-7-7-7-7-7-7--
D|-7-7-7-7-7-7-7-7-7-7-7-7-7-7--4-4-4-4-4-4-4--7-7-7-7-7-7-7-- X4
A|-7-7-7-7-7-7-7-7-7-7-7-7-7-7--4-4-4-4-4-4-4--5-5-5-5-5-5-5--
E|-5-5-5-5-5-5-5-5-5-5-5-5-5-5--2-2-2-2-2-2-2-----------------

This riff starts when tom starts singing
RIFF 2
E|-------------------------------------------------------------------            RIFF 2
B|-------------------------------------------------------------------        CONTINUES
G|-------------------------------------------------------------------           BELOW
D|-7-7-7-7-7-7-7-7-7-7-7-7--4-4-4-4-4-4-4-4-4-4-4-4
A|-7-7-7-7-7-7-7-7-7-7-7-7--4-4-4-4-4-4-4-4-4-4-4-4       X2 
E|-5-5-5-5-5-5-5-5-5-5-5-5--2-2-2-2-2-2-2-2-2-2-2-2

E|----------------------------------------------------------------------
B|----------------------------------------------------------------------
G|--9-9-9-9-9-9-9-9-9-9-9-9---------------------------------------------
D|--9-9-9-9-9-9-9-9-9-9-9-9----7-7-7-7-7-7-7-7-7-7-7-7------------------
A|--7-7-7-7-7-7-7-7-7-7-7-7----7-7-7-7-7-7-7-7-7-7-7-7------------------
E|-----------------------------5-5-5-5-5-5-5-5-5-5-5-5------------------

REPEAT INTRO & RIFF 1
RIFF 2

Then a when the chorus starts ( 0:55 ) a new riff starts!
RIFF 3

E|-------------------------------------------------------------       RIFF 3
B|-------------------------------------------------------------     CONTINUES 
G|-------------------------------------------------------------        BELOW
D|-7-7-7-7-7-7-7-7-7-7-7--6-6-6-6-6-6-6-6-6-6-6
A|-7-7-7-7-7-7-7-7-7-7-7--6-6-6-6-6-6-6-6-6-6-6    X2
E|-5-5-5-5-5-5-5-5-5-5-5--4-4-4-4-4-4-4-4-4-4-4

E|----------------------------------------------------------------
B|----------------------------------------------------------------
G|--6-6-6-6-6-6-6-6-6-6-6-----------------------------------------
D|--6-6-6-6-6-6-6-6-6-6-6---7-7-7-7-7-7-7-7-7-7-7-----------------
A|--4-4-4-4-4-4-4-4-4-4-4---7-7-7-7-7-7-7-7-7-7-7-----------------
E|--------------------------5-5-5-5-5-5-5-5-5-5-5-----------------

INTRO & RIFF 1
RIFF 2
RIFF 3

Then comes the empty clean part with the flute or whatever it is
SOLO
E|---------------------------------------------------------------------------------
B|--------------------------------------------------------------------------------
G|-------9-----------6-----------9-----------6-----------9------------6-------
D|----7-----7---7-----7-----7-----7-----7-----7-----7-----7----7-----7----
A|-0-----------0----------0------------0-----------7------------7-----------7
E|---------------------------------------------------------------------------------
                                                                              
-------9-----------6-----------9-----------6-----------9-----------6----------
----7-----7-----7-----7---7-----7-----7-----7----7-----7-----7-----7-------
-7-----------7-----------0-----------0----------------------------------------
----------------------------------------------------7-----------7----------------
                                                                              
-------6--------6----------- 6-6-6-6-6-6-6-6-6-6-6-6-6-6-----------------------
----7--------7--------7--7--7-7-7-7-7-7-7-7-7-7-7-7-7-7-----------------------
-5--------5--------5-------- 5-5-5-5-5-5-5-5-5-5-5-5-5-5-----------------------

Then when the flute stars you do Riff 1 until the end

THATS ALL FOLKS, SUGGESTIONS, ASK FOR A TAB, CORRECTIONS
            
Submit corrections

comments powered by Disqus
↑ Back to top | *Blink 182* Tabs for What Went Wrong. Lyrics for acoustic guitar and electric guitar. 1 Tablatures and chords are parodies/interpretations of the original songs. You may use it for private study, scholarship, research or language learning purposes only