>
 >
What S My Age Again

What S My Age Again Guitar Tabs

*Blink 182* - What S My Age Again chords, tabs, tablatures, lyrics

Guitar lessons | Add/correct | Request | Top 50 tabs Artists:  A B C D E F G H I J K L M N O P Q R S T U V W X Y Z 0-9

What S My Age Again Guitar Tabs – *Blink 182*

CD, Sheet music, Poster

Do you like What S My Age Again? Share with your friends now
Tabs
Intro And Verse: (0:00)

 |---------------8x----------------|
E|----------------|----------------|----------------|
B|----11------11--|----11------11--|----11------11--|
G|--11--11--11--11|--11--11--11--11|--11--11--11--11|
D|9---------------|----------------|9---------------|
A|--------9-------|----------------|--------9-------|
E|----------------|9-------11------|----------------|

Chorus: (0:25)

 |---------------3x----------------|
E|----------------|----------------|----------------|----------------|----------------|
B|----------------|----------------|----------------|----------------|----------------|
G|--------6-6-6-6-|8-8-8-8-4-4-4-4-|--------6-6-6-6-|8-8-8-8-8-8-8-8-|6-6-6-6-6-6-6-6-|
D|4-4-4-4-6-6-6-6-|8-8-8-8-4-4-4-4-|4-4-4-4-6-6-6-6-|8-8-8-8-8-8-8-8-|6-6-6-6-6-6-6-6-|
A|4-4-4-4-4-4-4-4-|6-6-6-6-2-2-2-2-|4-4-4-4-4-4-4-4-|6-6-6-6-6-6-6-6-|4-4-4-4-4-4-4-4-|
E|2-2-2-2---------|----------------|2-2-2-2---------|----------------|----------------|

Continued (1 Guitar): (0:39)

E|----------------|----------------|
B|----------------|----------------|
G|4~~~~~~~~~~~~~~~|~~~~~~~~~~~~~~~~|
D|4~~~~~~~~~~~~~~~|~~~~~~~~~~~~~~~~|
A|2~~~~~~~~~~~~~~~|~~~~~~~~~~~~~~~~|
E|----------------|----------------|

Continued (2 Guitar): (0:39)

E|----------------|----------------|
B|----11------11--|----11------11--|
G|--11--11--11--11|--11--11--11--11|
D|9---------------|----------------|
A|--------9-------|----------------|
E|----------------|9-------11------|

Verse 2 (Palm Muted): (0:42)

 |---------------3x----------------|
E|----------------|----------------|----------------|----------------|----------------|
B|----------------|----------------|----------------|----------------|----------------|
G|4-4-4-4---------|6-6-6-6-8-8-8-8-|4-4-4-4---------|6-6-6-6-6-6-6-6-|4-4-4-4-4-4-4-4-|
D|4-4-4-4-4-4-4-4-|6-6-6-6-8-8-8-8-|4-4-4-4-4-4-4-4-|6-6-6-6-6-6-6-6-|4-4-4-4-4-4-4-4-|
A|2-2-2-2-4-4-4-4-|4-4-4-4-6-6-6-6-|2-2-2-2-4-4-4-4-|4-4-4-4-4-4-4-4-|2-2-2-2-2-2-2-2-|
E|--------2-2-2-2-|----------------|--------2-2-2-2-|----------------|----------------|

Chorus 2: (0:56)

 |---------------3x----------------|
E|----------------|----------------|----------------|----------------|----------------|
B|----------------|----------------|----------------|----------------|----------------|
G|--------6-6-6-6-|8-8-8-8-4-4-4-4-|--------6-6-6-6-|8-8-8-8-8-8-8-8-|6-6-6-6-6-6-6-6-|
D|4-4-4-4-6-6-6-6-|8-8-8-8-4-4-4-4-|4-4-4-4-6-6-6-6-|8-8-8-8-8-8-8-8-|6-6-6-6-6-6-6-6-|
A|4-4-4-4-4-4-4-4-|6-6-6-6-2-2-2-2-|4-4-4-4-4-4-4-4-|6-6-6-6-6-6-6-6-|4-4-4-4-4-4-4-4-|
E|2-2-2-2---------|----------------|2-2-2-2---------|----------------|----------------|

Interlude: (1:10)

E|----------------|----------------|----------------|----------------|
B|----11----------|----11----------|----11----------|----11----------|
G|8-------11------|--------11------|--------11------|--------11------|
D|----------------|----------------|9---------------|----------------|
A|----------------|----------------|----------------|----------------|
E|----------------|----------------|----------------|----------------|

E|----------------|----------------|----------------|----------------|
B|----------------|----------------|----------------|----------------|
G|----------------|----------------|----------------|----------------|
D|------8/9-------|------8/9-------|------8/9-------|------8/9-------|
A|9-9-9-----------|9-9-9-----------|9-9-9-----------|9-9-9-----------|
E|----------------|----------------|----------------|----------------|

E|----------------|----------------|----------------|----------------|
B|----------------|----------------|----------------|----------------|
G|------11--------|------11--------|------11--------|------11--------| 3x
D|--8-----------8-|--8-----------8-|--8-----------8-|--8-----------8-|
A|9---9-------9---|9---9-------9---|9---9-------9---|9---9-------9---|
E|----------------|----------------|----------------|----------------|

E|----------------|----------------|----------------|----------------|
B|----------------|----------------|----------------|----------------|
G|------11--------|------11--------|------11--------|------11--------|
D|--8-----------8-|--8-----------8-|--8-----------8-|--8-------------|
A|9---9-------9---|9---9-------9---|9---9-------9---|9---9-----------|
E|----------------|----------------|----------------|----------------|

Outro (1 Guitar): (1:34)

 |---------------3x----------------|
E|----------------|----------------|----------------|----------------|----------------|
B|----------------|----------------|----------------|----------------|----------------|
G|--------6-6-6-6-|8-8-8-8-4-4-4-4-|--------6-6-6-6-|8-8-8-8-8-8-8-8-|6-6-6-6-6-6-6-6-| 3x
D|4-4-4-4-6-6-6-6-|8-8-8-8-4-4-4-4-|4-4-4-4-6-6-6-6-|8-8-8-8-8-8-8-8-|6-6-6-6-6-6-6-6-|
A|4-4-4-4-4-4-4-4-|6-6-6-6-2-2-2-2-|4-4-4-4-4-4-4-4-|6-6-6-6-6-6-6-6-|4-4-4-4-4-4-4-4-|
E|2-2-2-2---------|----------------|2-2-2-2---------|----------------|----------------|

Outro (2 Guitar): (1:48)

 |---------------4x----------------|
E|----------------|----------------|----------------|
B|----11------11--|----11------11--|----11------11--|
G|--11--11--11--11|--11--11--11--11|--11--11--11--11| 2x
D|9---------------|----------------|9---------------|
A|--------9-------|----------------|--------9-------|
E|----------------|9-------11------|----------------|

End (1 Guitar): (2:16)

E|----------------|
B|----------------|
G|4~~~~~~~~~~~~~~~|
D|4~~~~~~~~~~~~~~~|
A|2~~~~~~~~~~~~~~~|
E|----------------|


By Adolfo (Plastick)





Comments


Popular *Blink 182* tabs & chords
Dogs Eating Dogs 2 Bass Tabs
Time To Break Up 2 Bass Tabs
Dont Chords
Fuck A Dog Chords
21 Days Tabs
Blew Job 1 Tabs
Dumpweed 10 Tabs
Dumpweed 2 Tabs
Dysentery Gary 3 Tabs
Track 3 Tabs


Song lyrics



↑ Back to top | Tablatures and chords are parodies/interpretations of the original songs. You may use it for private study, scholarship, research or language learning purposes only
© 2014 AZChords.com Contact us | Privacy policy | DMCA | Add/correct tabs | Request tabs | Top 50 tabs