» » »

*Blink 182*, Verse For Cacophony Bass tabs (ver.1)

Artists:  A B C D E F G H I J K L M N O P Q R S T U V W X Y Z # 

Verse For Cacophony Bass tabs (ver.1)

*Blink 182* Tabs
 Rating:
4/5 (4 votes)
Verse For Cacophony lessons Tabs too difficult? Try these video lessons and learn fast
                Intro
G ------------------------------------------
A ---- 10----------10----------14-------10--
D -7-7----7--10-10---10--12-12---12--8-8---8 
E ------------------------------------------
i think you play this for six or seven times


Chorus:(Sometimes I don't feel...)
G|-----------------------------------------|
D|-----------------------------------------|
A|-12-12-12-12-12-12-12-12-8-8-8-8-8-8-8-8-|
E|-----------------------------------------|

G|--------------------------------------------------------------------|
D|--------------------------------------------------------------------|
A|-12-12-12-12-12-12-12-12-10-10-10-10-10-10-10-10-10-8-8-8-8-8-8-8-8-|
E|--------------------------------------------------------------------|


Verse 3
Riff 1:
G|--------------------------------------------------------------|
D|--------------------------------------------------------------| x2
A|-----------------8-8-8-8-8-8-8-8-7-7-7-7-7-7-7-7-8-8-8-8-8-10-|
E|-8-8-8-8-8-8-8-8----------------------------------------------|


Riff 2:(I'd think of all the things...)
G|-----------------------------------------------------------------|
D|-----------------6-6-6-6-6-6-6-6---------------------------------| x4
A|---------------------------------7-7-7-7-7-7-7-7-7-7-7-7-7-7-7-7-|
E|-7-7-7-7-7-7-7-7-------------------------------------------------|


Riff 1 x1


Riff 3:(Will there ever be...)
G|---------------------------------------------------------------------|
D|---------------------------------------------------------------------|
A|-7-7-7-7-8-8-8-8---------10-10-10-10-7-7-7-7-8-8-8-8-----------------|
E|-----------------8-8-8-8-----------------------------8-8-8-8-8-8-8-8-|

G|-----------------------------------------------------------------|
D|-----------------------------------------------------------------|
A|-7-7-7-7-8-8-8-8---------10-10-10-10-7-7-7-7---------10-10-10-10-|
E|-----------------8-8-8-8---------------------8-8-8-8-------------|
            
Submit corrections

comments powered by Disqus
↑ Back to top | *Blink 182* Bass for Verse For Cacophony. Lyrics for acoustic guitar and electric guitar. Tablatures and chords are parodies/interpretations of the original songs. You may use it for private study, scholarship, research or language learning purposes only