» » »

*Blink 182*, Longest Line Tabs (ver.1)

Artists:  A B C D E F G H I J K L M N O P Q R S T U V W X Y Z # 

Longest Line Tabs (ver.1)

*Blink 182* Tabs
 Rating:
4/5 (4 votes)
Longest Line lessons Tabs too difficult? Try these video lessons and learn fast
                VERSE                                                      2X  int         1X
e|------------------------------------------------------------[--------------|
B|------------------------------------------------------------[-2-4-6-7-9----|
G|------------------------------------------------------------[--------------|
D|--555555---------------------555555-------------------------[--------------|
A|--333333-555555-777777777777-333333-555555-33333333---77-55-[--------------|
E|---------333333-555555555555--------333333-11111111-/-55-33-[--------------|
  VERSE                                                      2X  int         1X
e|------------------------------------------------------------[--------------|
B|------------------------------------------------------------[--------------|
G|------------------------------------------------------------[--------------|
D|--555555---------------------555555-------------------------[--------------|
A|--333333-555555-777777777777-333333-555555-33333333---77-55-[-3-5-7-8------|
E|---------333333-555555555555--------333333-11111111-/-55-33-[-1-3-5-6------|
  CHOURS                                                                   1x
e|---------------------------------------------------------------------------|
B|---------------------------------------------------------------------------|
G|---------------------------------------------------------------------------|
D|--555555-----------------------------555555-777777--10101010---------------|
A|--333333-555555-777777-222222-333333-333333-555555---8888888---------------|
E|---------333333-555555-000000-111111---------------------------------------|
solo
e|---------------------------------------------------------9-7-9-0-9---------|
B|-------------------------------------------------3/5-7-7-----------5-7-5-0-|
G|----------------------------------------2/5-5-7----------------------------|
D|------5-3-2-0-0---2-3-2-0-3-3-2-3-2-2/5------------------------------------|
A|--2/3-----------3----------------------------------------------------------|
E|---------------------------------------------------------------------------|

repeat the verse 2x
                                                                       2x
e|---------------------------------------------------------------------------|
B|---------------------------------------------------------------------------|
G|---------------------------------------------------------------------------|
D|--555555-----------------------------555555-777777--10101010---------------|
A|--333333-555555-777777-222222-333333-333333-555555---8888888---------------|
E|---------333333-555555-000000-111111---------------------------------------|
            
Submit corrections

comments powered by Disqus
↑ Back to top | *Blink 182* Tabs for Longest Line. Lyrics for acoustic guitar and electric guitar. Tablatures and chords are parodies/interpretations of the original songs. You may use it for private study, scholarship, research or language learning purposes only