» » »

Grandpa Song Bass tabs (ver.1)

Artists:  A B C D E F G H I J K L M N O P Q R S T U V W X Y Z # 

Grandpa Song Bass tabs (ver.1)

*Blink 182*
Rating:
0/5 (0 votes)

Hard to play? Try these video lessons and learn fast.
                
Tuning: standard

4/4 time

INTRO
G-----------------
D-0-0-0-0-----0---
A-----------------
E---------3-3-----
  1 2 3 4 1 2 3 4 
 

VERSE
G-----------------
D-0-0-0-0---------
A-------------0-0-
E---------3-3-----  
  1 2 3 4 1 2 3 4 


CHORUS
G-----------------
D-----------------
A---------0-0-0-0-
E-3-3-3-3---------
  1 2 3 4 1 2 3 4



END
G---------
D---------
A---------
E-3-------
  1 2 3 4 



THIS IS A GREAT SONG BUT ITS WAY TO EASY, BUT FUN TO PLAY.

ENJOY
            
Hard to play? Try these video lessons and learn fast. | Correct




comments powered by Disqus
↑ Back to top | Tablatures and chords are parodies/interpretations of the original songs. You may use it for private study, scholarship, research or language learning purposes only