» » »

The Enema Strikes Back Tabs (ver.1)

Artists:  A B C D E F G H I J K L M N O P Q R S T U V W X Y Z # 

The Enema Strikes Back Tabs (ver.1)

*Blink 182*
Rating:
0/5 (0 votes)

Tabs too difficult? Try these video lessons and learn fast.
                		      ADAM'S SONG (LIVE) - Blink 182


This is off of The Mark Tom and Travis Show (The Enema Strikes Back)

Tuned down 1 1/2 steps

INTRO
e|---------------------------------------------------------------------------|
B|---------------------------------------------------------------------------|
G|---------------------------------------------------------------------------|
D|----4-0----4-0----4-0----4-0----4-0----4-0----4-0----4-0-------------------|
A|--2------2------0------0---------------------------------------------------|
E|------------------------------3------3------0------3-----------------------|

e|---------------------------------------------------------------------------|
B|---------------------------------------------------------------------------|
G|---------------------------------------------------------------------------|
D|----4-0----4-0----4-0----4-0----4-0----4-0----4-0----4-0-------------------|
A|--2------2------0------0---------------------------------------------------|
E|------------------------------3------3------0------3-----------------------|

VERSE
e|---------------------------------------------------------------------------|
B|---------------------------------------------------------------------------|
G|---------------------------------------------------------------------------|
D|--7-7-7-7-7-7-7-7----------------------------------------------------------| x 4
A|--5-5-5-5-5-5-5-5--5-5-5-5-5-5-5-5--9-9-9-9-9-9-9-9--5-5-5-5-5-5-5-5-------|
E|-------------------3-3-3-3-3-3-3-3--7-7-7-7-7-7-7-7--3-3-3-3-3-3-3-3-------|


INTERLUDE 1
e|---------------------------------------------------------------------------|
B|---------------------------------------------------------------------------|
G|------0------0------0------0-----------------------------------------------|
D|----7------7------9------9------4-0----4-0----4-0----4-0-------------------|
A|--5------5------7------7------2------2-------------------------------------|
E|--------------------------------------------3------3-----------------------|

e|---------------------------------------------------------------------------|
B|---------------------------------------------------------------------------|
G|------0------0------0------0-----------------------------------------------|
D|----7------7------9------9------4-0----4-0----4-0----4-0-------------------|
A|--5------5------7------7------2------2-------------------------------------|
E|--------------------------------------------3------3-----------------------|

PRE-CHORUS (yes you play the open string)
e|---------------------------------------------------------------------------|
B|---------------------------------------------------------------------------|
G|-7-7-7-7-7-7-7-7--9-9-9-9-9-9-9-9--4-4-4-4-4-4-4-4-------------------------|
D|-0-0-0-0-0-0-0-0--0-0-0-0-0-0-0-0--0-0-0-0-0-0-0-0-------------------------|
A|-5-5-5-5-5-5-5-5--7-7-7-7-7-7-7-7--2-2-2-2-2-2-2-2-------------------------|
E|---------------------------------------------------------------------------|

e|---------------------------------------------------------------------------|
B|---------------------------------------------------------------------------|
G|--12-12-12-12-12-12-12-12--11-11-11-11-11-11-11-11-------------------------|
D|---0--0--0--0--0--0--0--0---0--0--0--0--0--0--0--0-------------------------|
A|--10-10-10-10-10-10-10-10---9--9--9--9--9--9--9--9-------------------------|
E|---------------------------------------------------------------------------|

e|---------------------------------------------------------------------------|
B|---------------------------------------------------------------------------|
G|--12-12-12-12-12-12-12-12--11-11-11-11-11-11-11-11-------------------------|
D|---0--0--0--0--0--0--0--0---0--0--0--0--0--0--0--0-------------------------|
A|--10-10-10-10-10-10-10-10---9--9--9--9--9--9--9--9-------------------------|
E|---------------------------------------------------------------------------|

e|---------------------------------------------------------------------------|
B|---------------------------------------------------------------------------|
G|--12-12-12-12-12-12-12-12--------------------------------------------------|
D|---0--0--0--0--0--0--0--0--------------------------------------------------|
A|--10-10-10-10-10-10-10-10--------------------------------------------------|
E|---------------------------------------------------------------------------|

CHORUS
e|---------------------------------------------------------------------------|
B|---------------------------------------------------------------------------|
G|--7-7-7-7-7-7-7-7--9-9-9-9-9-9-9-9-----------------------------------------|
D|--7-7-7-7-7-7-7-7--9-9-9-9-9-9-9-9--9-9-9-9-9-9-9-9--5-5-5-5-5-5-5-5-------|
A|--5-5-5-5-5-5-5-5--7-7-7-7-7-7-7-7--9-9-9-9-9-9-9-9--5-5-5-5-5-5-5-5-------|
E|------------------------------------7-7-7-7-7-7-7-7--3-3-3-3-3-3-3-3-------|

e|---------------------------------------------------------------------------|
B|---------------------------------------------------------------------------|
G|--7-7-7-7-7-7-7-7--9-9-9-9-9-9-9-9-----------------------------------------|
D|--7-7-7-7-7-7-7-7--9-9-9-9-9-9-9-9--9-9-9-9-9-9-9-9--5-5-5-5-5-5-5-5-------|
A|--5-5-5-5-5-5-5-5--7-7-7-7-7-7-7-7--9-9-9-9-9-9-9-9--5-5-5-5-5-5-5-5-------|
E|------------------------------------7-7-7-7-7-7-7-7--3-3-3-3-3-3-3-3-------|

(Repeat INTRO)

(Repeat VERSE)

INTERLUDE 2
e|---------------------------------------------------------------------------|
B|---------------------------------------------------------------------------|
G|------0------0------0------0-----------------------------------------------|
D|----7------7------9------9------4-0----4-0----4-0----4-0-------------------|
A|--5------5------7------7------2------2-------------------------------------|
E|--------------------------------------------3------3-----------------------|

e|---------------------------------------------------------------------------|
B|---------------------------------------------------------------------------|
G|------0------0------0------0-----------------------------------------------|
D|----7------7------9------9------4-0----4-0----4-0----2-0-------------------|
A|--5------5------7------7------2------2-------------------------------------|
E|--------------------------------------------3------3-----------------------|

(Repeat PRE-CHORUS)

(Repeat CHORUS)

BRIDGE
e|---------------------------------------------------------------------------|
B|---------------------------------------------------------------------------|
G|------0-----0-----0-----0-------0--------0-----0-----0-----0-------0-------|
D|----4-----4-----4---4-----4---4--------4-----4-----4---4-----4---4---------|
A|--5-----5-----5-------5-----5--------5-----5-----5-------5-----5-----------|
E|---------------------------------------------------------------------------|

e|---------------------------------------------------------------------------|
B|---------------------------------------------------------------------------|
G|------0-----0-----0-----0-------0--------0-----0-----0-----0-------0-------|
D|----4-----4-----4---4-----4---4--------4-----4-----4---4-----4---4---------|
A|--5-----5-----5-------5-----5--------5-----5-----5-------5-----5-----------|
E|---------------------------------------------------------------------------|

e|---------------------------------------------------------------------------|
B|---------------------------------------------------------------------------|
G|------7-----7-----7-----7-----7----------7-----7-----7-----7-------7-------|
D|----0-----0-----0---0-----0-----0------0-----0-----0---0-----0---0---------|
A|--5-----5-----5-------5-----5--------5-----5-----5-------5-----5-----------|
E|---------------------------------------------------------------------------|

e|---------------------------------------------------------------------------|
B|---------------------------------------------------------------------------|
G|------7-----------7-----7-----7----------7-----7-----7-----7-------7-------|
D|----0---0---0---0---0-----0-----0------0-----0-----0---0-----0---0---------|
A|--5-------5---5-------5-----5--------5-----5-----5-------5-----5-----------|
E|---------------------------------------------------------------------------|

(Repeat CHORUS 2x)

LAST CHORD
e|---------------------------------------------------------------------------|
B|---------------------------------------------------------------------------|
G|--7------------------------------------------------------------------------|
D|--7------------------------------------------------------------------------|
A|--5------------------------------------------------------------------------|
E|---------------------------------------------------------------------------|
            
Tabs too difficult? Try these video lessons and learn fast.




comments powered by Disqus
↑ Back to top | Tablatures and chords are parodies/interpretations of the original songs. You may use it for private study, scholarship, research or language learning purposes only