» » »

Stftk Tabs (ver.1)

Artists:  A B C D E F G H I J K L M N O P Q R S T U V W X Y Z # 

Stftk Tabs (ver.1)

*Blink 182*
Rating:
0/5 (0 votes)

Hard to play? Try these video lessons and learn fast.
                rtist-Blink-182
Song-Stay together for the kids
Album-Take off your pants and jacket
I’m 100§ sure this is a right tab
 

Intro 2x
-|--------------------------------------------------------------------- 
-|---------------------------------------------------------------------
-|---------------------------------------------------------------------
-|---0---7-0---4-0---0---7-0---4-0---0---4-0---5-0---2-----4-5-4-2-0---
-|-5---5-----5-----4---4-----4-----2---2-----2-----0---0---------------  
-|---------------------------------------------------------------------                                                                             


Then as soon as the intro ends u play the verse  

Verse 2x
-|---------------------------------------------------------------------
-|---------------------------------------------------------------------
-|----7----7----7----7-----7----7----7----7----------------------------
-|----7----7----7----7-----7----7----7----7----------------------------
-|55----55---55---55---------------------------------------------------
-|----------------------77---77---77---77------------------------------
                                                                              

-|---------------------------------------------------------------------
-|---------------------------------------------------------------------
-|----7----7----7----7----9----9----6----7-----------------------------
-|----7----7----7----7----7----7----7----7-----------------------------
-|-00---00---00---00---00---00---00---00-------------------------------
-|---------------------------------------------------------------------


Chorus 4x
-|----------------------------------------------------------------------|----------------------------------------------------------------------|--------------------------------------------------------------------- 
-|-555555555555555------4444444444444---4------------------------------
-|-555555555555555------5555555555555---5------------------------------
- |-3333333333333330- - - - - 2222222222222 - - 0-2- - - - - - - - - - - - - - - - - - - - - - - - -

Bridge 2x
-|---------------------------------------------------------------------
-|---------------------------------------------------------------------
-|--7---7---7---9---7---7---7---7---9---7------------------------------
-|--7---7---7---9---7---7---7---7---9---7—-----------------------------
-|--5---5---5-------5---5---5---5-------5------------------------------
-|--5---5---5-------5---5---5---5-------5------------------------------


In order 
-Intro
-Verse
-Chorus
-Intro
-Verse
-Chorus
-Bridge
-Chorus
END
            
Hard to play? Try these video lessons and learn fast. | Correct




comments powered by Disqus
↑ Back to top | Tablatures and chords are parodies/interpretations of the original songs. You may use it for private study, scholarship, research or language learning purposes only