» » »

Merry Christmas Tabs (ver.1)

Artists:  A B C D E F G H I J K L M N O P Q R S T U V W X Y Z # 

Merry Christmas Tabs (ver.1)

*Blink 182*
Rating:
0/5 (0 votes)

Hard to play? Try these video lessons and learn fast.
                Blnk 182

Merry Christmas you Bastard



intro

Eb|---------------------------|
Bb|---------------------------|
Gb|-4-4-4-4-4-4-4-4-----------|
Db|-4-4-4-4-4-4-4-4-4-4-4-4-4-|
Ab|-2-2-2-2-2-2-2-2-4-4-4-4-4-|
Eb|-----------------2-2-2-2-2-|

part 2

|-------------------------|
|-------------------------|
|-------------------------|
|-6-6-6-6-6-2-2-2-2-2-2-2-|
|-6-6-6-6-6-2-2-2-2-2-2-2-|
|-4-4-4-4-4-0-0-0-0-0-0-0-|

part 3

|--------------------------|
|--------------------------|
|-4-4-4-4------------------|
|-4-4-4-4-4-4-4-4-2--4-4-4-|
|-2-2-2-2-4-4-4-4-2--4-4-4-|
|---------2-2-2-2-0--2-2-2-|

part 4

|---------------------------------|
|---------------------------------|
|-4-4-4-4-------------------------|
|-4-4-4-4-4-4-4-4-2-2-2-2-2-2-2-2-|
|-2-2-2-2-4-4-4-4-2-2-2-2-2-2-2-2-|
|---------2-2-2-2-0-0-0-0-0-0-0-0-|

ending

|------------------|
|------------------|
|-4--------------4-|
|-4--------------4-|
|-2--------------2-|
|------------------|

intro x 2

part 2

part 3

part 4 x 3

intro x 2 

part 2

part 3

part 4 x 3

ending

hey, this song is awesome, but its harder than it looks to sing and play at the same time....... anyways there ya go again
            
Hard to play? Try these video lessons and learn fast. | Correct




comments powered by Disqus
↑ Back to top | Tablatures and chords are parodies/interpretations of the original songs. You may use it for private study, scholarship, research or language learning purposes only