>
 >
Big Day Out

Big Day Out Bass Tabs

*Blink 182* - Big Day Out chords, tabs, tablatures, lyrics

Guitar lessons | Add/correct | Request | Top 50 tabs Artists:  A B C D E F G H I J K L M N O P Q R S T U V W X Y Z 0-9

Big Day Out Bass Tabs – *Blink 182*

CD, Sheet music, Poster

Do you like Big Day Out? Share with your friends now
Bass Tabs
This is the entire Big Day Out concert they did in Australia.  All of this shoud be
right, but I think Mark might play some notes on different strings, or plays some stuff
an octive higher, but it's close.  Also sometimes when Mark playes open notes, he sometimes 
just hits one time and lets it ring.

Family Reunion
ŻŻŻŻŻŻŻŻŻŻŻŻŻŻ
Intro      Main Riff x2
G|------| |------------------------------------|
D|------| |------------------------------------|
A|-0~~~-| |-00000000-22222222-4444444-55555555-|
E|------| |------------------------------------|
           Do this once without the guitar and once with
Interlude
G|----------------------------|
D|----------------------------|
A|-00-0--22-2--44-4--55555555-|
E|----------------------------|

Main Riff x1                              Ending
G|-------------------------------------| |--------|
D|-------------------------------------| |--------|
A|-00000000-22222222-44444444-55555555-| |-0~~~-0-|
E|-------------------------------------| |--------|

Dumpweed
ŻŻŻŻŻŻŻŻ
Intro
G|---------------------|
D|---------------------|
A|-----------0~~~-0~~~-|
E|-0~~~-0~~~-----------|

Main Riff x2
G|-------------------------------------|
D|-------------------------------------|
A|----------00000000-22222222-22222200-|
E|-00000000----------------------------|

Verse x2
G|-------------------------------------------------------------------------|
D|-------------------------------------------------------------------------|
A|----------222222------------222222---00000000-222222---00000000-222222-4-|
E|-00000000----------00000000----------------------------------------------|

Intro (with a different ending)
G|--------------------------------|
D|--------------------------------|
A|-----------0~~~-00000000-222222-|
E|-0~~~-0~~~----------------------|

Chorus
G|-------------------------------------------------------------------------|
D|-------------------------------------------------------------------------|
A|----------22222222-000000000-22222222----------22222222-00000000-2---2---|
E|-00000000-----------------------------00000000---------------------------|

Main Riff x2
G|-------------------------------------|
D|-------------------------------------|
A|----------00000000-22222222-22222200-|
E|-00000000----------------------------|

Verse x1
G|-------------------------------------------------------------------------|
D|-------------------------------------------------------------------------|
A|----------222222------------222222---00000000-222222---00000000-222222-4-|
E|-00000000----------00000000----------------------------------------------|

Intro (with a different ending)
G|--------------------------------|
D|--------------------------------|
A|-----------0~~~-00000000-222222-|
E|-0~~~-0~~~----------------------|

Chorus x2
G|-------------------------------------------------------------------------|
D|-------------------------------------------------------------------------|
A|----------22222222-000000000-22222222----------22222222-00000000-2---2---|
E|-00000000-----------------------------00000000---------------------------|

Verse x4
G|------------------------------------------------------------------------|
D|------------------------------------------------------------------------|
A|----------222222------------222222---00000000-222222---00000000-222222--|
E|-00000000----------00000000---------------------------------------------|

Don't Leave Me
ŻŻŻŻŻŻŻŻŻŻŻŻŻŻ
Intro x2
G|-----------------------------------------|
D|-----------------------------------------|
A|----0-000----5-555----2-222----5555-7777-|
E|-----------------------------------------|
I think Mark pretty much lets each note ring, but when I play it, I don't

Verse
G|--------------------------------------------------------------------------|
D|--------------------------------------------------------------------------|
A|----------55555555----------55555555----------55555555----------5555-7777-|
E|-55555555----------77777777----------55555555----------77777777-----------|

Chorus
G|---------------------|    |-----------------|
D|---------------------| x3 |-----------------|
A|-----------5555-7777-|    |-----------5-5-5-|
E|-5555-7777-----------|    |-5555-7777-------|

Intro x2
G|-----------------------------------------|
D|-----------------------------------------|
A|----0-000----5-555----2-222----5555-7777-|
E|-----------------------------------------|

Verse
G|--------------------------------------------------------------------------|
D|--------------------------------------------------------------------------|
A|----------55555555----------55555555----------55555555----------5555-7777-|
E|-55555555----------77777777----------55555555----------77777777-----------|

Chorus
G|---------------------|    |-----------------|
D|---------------------| x3 |-----------------|
A|-----------5555-7777-|    |-----------5-5-5-|
E|-5555-7777-----------|    |-5555-7777-------|

Interlude x8
G|---------------------|
D|-7777-9999-7777-7777-|
A|-0000-7777-5555-5555-|
E|---------------------|
Then right before the chorus, I like to do a slide on the E string

Chorus
G|---------------------|    |-----------------|
D|---------------------| x3 |-----------------|
A|-----------5555-7777-|    |-----------5-5-5-|
E|-5555-7777-----------|    |-5555-7777-------|

Outro
G|------------------------------------------|
D|------------------------------------------|
A|----------55555555----------5-------------|
E|-55555555----------77777777------5~~~---5-|

Pathetic
ŻŻŻŻŻŻŻŻ
Intro
G|-------------------------------------|    |-------------------|
D|-------------------------------------| x3 |-------------------|
A|-66666666-77777777-------------------|    |-66666666-77777777-|
E|-------------------77777777-77777777-|    |-------------------|

Verse x4
G|-------------------------------------|
D|-------------------------------------|
A|-------------------99999999-77777777-|
E|-77777777-77777777-------------------|

Chorus
G|--------------------------------------------|
D|--------------------------------------------|
A|----------------222----------------222------|
E|-44444444-44444-----22222222-22222-----0~~~-|

G|---------------------------------------------------------|
D|---------------------------------------------------------|
A|----------------222----------------222-77777777-77777777-|
E|-44444444-44444-----22222222-22222-----------------------|

Intro
G|-------------------------------------|    |-------------------|
D|-------------------------------------| x3 |-------------------|
A|-66666666-77777777-------------------|    |-66666666-77777777-|
E|-------------------77777777-77777777-|    |-------------------|

Verse x4
G|-------------------------------------|
D|-------------------------------------|
A|-------------------99999999-77777777-|
E|-77777777-77777777-------------------|

Chorus
G|--------------------------------------------|
D|--------------------------------------------|
A|----------------222----------------222------|
E|-44444444-44444-----22222222-22222-----0~~~-|

G|---------------------------------------------------------|
D|---------------------------------------------------------|
A|----------------222----------------222-77777777-77777777-|
E|-44444444-44444-----22222222-22222-----------------------|

Interlude x4
G|----------------------------|
D|----------------------------|
A|-66666666-77777777----------|
E|-------------------77777777-|

Last Chorus
G|--------------------------------------------|
D|--------------------------------------------|
A|----------------222----------------222------|
E|-44444444-44444-----22222222-22222-----0~~~-|

G|------------------------------------------------------------|
D|------------------------------------------------------------|
A|----------------222----------------222-77777777-77777777----|
E|-44444444-44444-----22222222-22222-----------------------77-|

What's My Age Again
ŻŻŻŻŻŻŻŻŻŻŻŻŻŻŻŻŻŻŻ
Verse
G|---------------------|    |-------------------------------|
D|---------------------| x5 |-------------------------------|
A|-4444------6666-8888-|    |-4444------6666-6666-8888-8888-|
E|------4444-----------|    |------4444---------------------|

Chorus
G|---------------------|    |------------------------------------|
D|---------------------| x3 |-------------------------------6~~~-|
A|------6-66-8-88-4-44-|    |------6-66-8888-8888-6666-6666-4~~~-|
E|-4-44----------------|    |-4-44-------------------------------|
                             I'm not sure if that last note is a chord or not
Verse
G|---------------------|    |-------------------------------|
D|---------------------| x3 |-------------------------------|
A|-4444------6666-8888-|    |-4444------6666-6666-8888-8888-|
E|------4444-----------|    |------4444---------------------|

Chorus
G|---------------------|    |-------------------------------|
D|---------------------| x3 |-------------------------------|
A|------6-66-8-88-4-44-|    |------6-66-8888-8888-6666-6666-|
E|-4-44----------------|    |-4-44--------------------------|

Interlude
G|------------------------------|
D|---10------8------6------8----|
A|-8----8~-6---6~-4---4~-6---6~-|
E|------------------------------|

G|---------------------------------------------|
D|----10------10------8------8------6------6---| x2
A|-88----8-88----8-66---6-66---6-44---4-44---4-|
E|---------------------------------------------|

G|-----------------------------------------------------|
D|----10------10------8------8------6---6666-8888-8888-|
A|-88----8-88----8-66---6-66---6-44---4-4444-6666-6666-|
E|-----------------------------------------------------|

Chorus x2
G|---------------------|    |-------------------------------|
D|---------------------| x3 |-------------------------------|
A|------6-66-8-88-4-44-|    |------6-66-8888-8888-6666-6666-|
E|-4-44----------------|    |-4-44--------------------------|

Last Chorus
G|---------------------|    |------------------------------------|
D|---------------------| x3 |-------------------------------6~~~-|
A|------6-66-8-88-4-44-|    |------6-66-8888-8888-6666-6666-4~~~-|
E|-4-44----------------|    |-4-44-------------------------------|

Blew Job
ŻŻŻŻŻŻŻŻ
Intro x2
G|---------------------|
D|---------------------|
A|-2~~~----------------|
E|------0~~~-2~~~-0~~~-|

Verse
G|-------------------------------------|    |------|
D|-------------------------------------| x2 |------|
A|-22222222----------------------------|    |-2~~~-|
E|----------00000000-22222222-00000000-|    |------|

Aliens Exist
ŻŻŻŻŻŻŻŻŻŻŻŻ
Verse
G|-------------------------------------|    |-------------------------------------|
D|-------------------------------------| x2 |-------------------------------------|
A|-22222222----------------------------|    |-22222222-44444444-66666666-77777777-|
E|----------22222222-44444444-00000000-|    |-------------------------------------|

G|-------------------------------------|
D|-------------------------------------|
A|-22222222----------------------------|
E|----------22222222-44444444-00000000-|

Interlude x2
G|----------------------------------|
D|----------------------------------|
A|-22222----------------------------|
E|---------00000000-44444---0000000-|

Verse
G|-------------------------------------|    |-------------------------------------|
D|-------------------------------------| x2 |-------------------------------------|
A|-22222222----------------------------|    |-22222222-44444444-66666666-77777777-|
E|----------22222222-44444444-00000000-|    |-------------------------------------|

G|----------------------------|
D|----------------------------|
A|-22222222-------------------|
E|----------22222222-44444444-|

Chorus
G|-------------------|    |--------------------|    |----------------|
D|-------------------| x2 |--------------------| x2 |----------------|
A|-22222222----------|    |--------------------|    |-------2~~------|
E|----------22222222-|    |-444444-22-00000000-|    |-2~-0~-----2~-0-|

Interlude x2
G|----------------------------------|
D|----------------------------------|
A|-22222----------------------------|
E|---------00000000-44444---0000000-|

Verse
G|-------------------------------------|    |-------------------------------------|
D|-------------------------------------| x2 |-------------------------------------|
A|-22222222----------------------------|    |-22222222-44444444-------------------|
E|----------22222222-44444444-00000000-|    |-------------------44444444-00000000-|

G|----------------------------------|
D|----------------------------------|
A|-22222222-------------------------|
E|----------22222222-44444444-0~~~~-|

Chorus
G|-------------------|    |--------------------|    |----------------|
D|-------------------| x2 |--------------------| x2 |----------------|
A|-22222222----------|    |--------------------|    |-------2~~------|
E|----------22222222-|    |-444444-22-00000000-|    |-2~-0~-----2~-0-|

Interlude x4
G|--------------------------------------|
D|--------------------------------------|
A|----------------------------2222------|
E|-44444444-22222222-00000000------2222-|
Play twice under the guitar "solo" and twice while Tom is singing

Last Chorus
G|-------------------|    |--------------------|    |-----------|
D|-------------------| x2 |--------------------| x2 |-----------| x3
A|-22222222----------|    |--------------------|    |-------2~~-|
E|----------22222222-|    |-444444-22-00000000-|    |-2~-0~-----|

Going Away To College
ŻŻŻŻŻŻŻŻŻŻŻŻŻŻŻŻŻŻŻŻŻ
Intro
G|-----|
D|-----|
A|-7~~-| hit this note towards the end of the intro
E|-----|

Main Riff and Verse x4
G|-------------------------------------|
D|-------------------------------------|
A|-------------------77777777-99999999-|
E|-77777777-77777777-------------------|

Other Verse
G|--------------------------|
D|--------------------------|
A|--------77777777-99999999-|
E|-7-77-7-------------------|

Main Riff and Verse x4
G|-------------------------------------|
D|-------------------------------------|
A|-------------------77777777-99999999-|
E|-77777777-77777777-------------------|

Other Verse
G|--------------------------|
D|--------------------------|
A|--------77777777-99999999-|
E|-7-77-7-------------------|

Chorus x4
G|-------------------------------------|
D|-------------------------------------|
A|-66666666-77777777-22222222----------|
E|----------------------------22222222-|

Main Riff and Verse x4
G|-------------------------------------|
D|-------------------------------------|
A|-------------------77777777-99999999-|
E|-77777777-77777777-------------------|

Other Verse
G|--------------------------|
D|--------------------------|
A|--------77777777-99999999-|
E|-7-77-7-------------------|

Chorus x4
G|-------------------------------------|
D|-------------------------------------|
A|-66666666-77777777-22222222----------|
E|----------------------------22222222-|

Interlude
G|----------------------------------------|
D|----------------------------------------|
A|------7~~~-6h7p6----------6-7~-99999999-|
E|-7~~~------------7~~-7-h9---------------|

Chorus
G|-------------------------------------|    |---------------------------------|
D|-------------------------------------| x3 |---------------------------------|
A|-66666666-77777777-22222222----------|    |-66666666-77777777-22222222-9~~~-|
E|----------------------------22222222-|    |---------------------------------|

Mutt
ŻŻŻŻ
Intro
G|--9---9---9---9---9---9---9---9---------------------------------|
D|77--77--77--77--77--77--77--77----7---7---7---7---7---7---7---7-|
A|--------------------------------55--55--55--55--55--55--55--55--|
E|----------------------------------------------------------------|

Main Riff
G|-------------------------------------------------------------------|
D|-------------------------------------------------------------------|
A|-00000000-00000000-0000-2222-4444-55555555-55555555-5555-9999-7777-|
E|-------------------------------------------------------------------|

G|------------------------------------------------------------------|
D|------------------------------------------------------------------|
A|-00000000-00000000-0000-2222-4444-55555555-5555-99999999-77777777-|
E|------------------------------------------------------------------|

Verse x4
G|---------------------------------------|
D|---------------------------------------|
A|-00000000-0000-22-44-99999999-77777777-|
E|---------------------------------------|

Right Before Chorus
G|-------------------------------------|
D|-------------------------------------|
A|-55555555-55555555-55555555-77777777-|
E|-------------------------------------|

Chorus x6
G|--------------------------------------|
D|-------------------------4------------|
A|-0-0-7h9p7-0-0-7h9p7-2-2---2--5-5-4-4-|
E|--------------------------------------|

Main Riff
G|-------------------------------------------------------------------|
D|-------------------------------------------------------------------|
A|-00000000-00000000-0000-2222-4444-55555555-55555555-5555-9999-7777-|
E|-------------------------------------------------------------------|

G|------------------------------------------------------------------|
D|------------------------------------------------------------------|
A|-00000000-00000000-0000-2222-4444-55555555-5555-99999999-77777777-|
E|------------------------------------------------------------------|

Verse x4
G|---------------------------------------|
D|---------------------------------------|
A|-00000000-0000-22-44-99999999-77777777-|
E|---------------------------------------|

Right Before Chorus
G|-------------------------------------|
D|-------------------------------------|
A|-55555555-55555555-55555555-77777777-|
E|-------------------------------------|

Chorus x6
G|--------------------------------------|
D|-------------------------4------------|
A|-0-0-7h9p7-0-0-7h9p7-2-2---2--5-5-4-4-|
E|--------------------------------------|

Interlude x2
G|-------------------|
D|-------------------|
A|-00----22----55-44-|
E|-------------------|

Chorus x6
G|--------------------------------------|
D|-------------------------4------------|
A|-0-0-7h9p7-0-0-7h9p7-2-2---2--5-5-4-4-|
E|--------------------------------------|
Play twice under the guitar's main riff and then the actully chorus

Outro
G|-----------------|    |------| |-14-| hit that last chord
D|-----------------| x2 |------| |-14-| in different rythems
A|-0~~~-2~~~-5~-4~-|    |-0~~~-| |----|
E|-----------------|    |------| |----|

All The Small Things
ŻŻŻŻŻŻŻŻŻŻŻŻŻŻŻŻŻŻŻŻ
Intro
G|------|
D|------|
A|------|
E|-3--1-|

Main Riff x2
G|-------------------------------------|
D|----------33333333-------------------|
A|-33333333----------------------------|
E|-------------------33333333-----1--1-|

Verse x4
G|-------------------------------------|
D|-------------------------------------|
A|-33333333----------------------------|
E|----------33333333-11111111-33333333-|

Pre-Chorus
G|---------------------------------------------|
D|---------------------------------------------|
A|-33333333-33333333-1010101010101010-88888888-|
E|---------------------------------------------|
                              Those are 10's
Chorus x2
G|---------------------------------------------|
D|---------------------------------------------|
A|-------------------1010101010101010-88888888-|
E|-88888888-88888888---------------------------|

Main Riff x2
G|-------------------------------------|
D|-------------------------------------|
A|-33333333-33333333-------------------|
E|-------------------33333333------1-1-|

Verse x2
G|-------------------------------------|
D|-------------------------------------|
A|-33333333----------------------------|
E|----------33333333-11111111-33333333-|

Pre-Chorus
G|---------------------------------------------|
D|---------------------------------------------|
A|-33333333-33333333-1010101010101010-88888888-|
E|---------------------------------------------|

Chorus x2
G|---------------------------------------------|
D|---------------------------------------------|
A|-------------------1010101010101010-88888888-|
E|-88888888-88888888---------------------------|

Interlude
G|----------------|    |---------------------------------------------|
D|-------10~--12~-| x3 |---------------------------------------------|
A|-10~~~--8~---8~-|    |-------------------88888888-1010101010101010-|
E|--8~~~----------|    |-88888888-88888888---------------------------|

Chorus
G|---------------------------------------------|    |-------|
D|---------------------------------------------| x4 |-------|
A|-------------------1010101010101010-88888888-|    |-10~~~-|
E|-88888888-88888888---------------------------|    |--8~~~-|

Untitled
ŻŻŻŻŻŻŻŻ
Verse x6
G|-----------------------------------|
D|-----------------------------------|
A|-22222----2222222------------------|
E|------------------00000----2222222-|

Chorus
G|---------------------------------------------------------|    |------------|
D|---------------------------------------------------------| x2 |------------|
A|-----------------------5-2-2-2-2-2-2-2-0-----------------|    |---------2~-|
E|-4---4-4-4-2-0---0-0-0-------------------2-2-2-2-2-2-2-2-|    |-0-0-0-0----|

Rest (Guitar Riff)

Verse x4
G|-------------------------------------|
D|-------------------------------------|
A|-22222222-22222222-------------------|
E|-------------------00000000-22222222-|

Chorus
G|----------------------------------------|    |-------------|
D|----------------------------------------| x2 |-------------|
A|-------------------5-2222222-0----------|    |----------2~-|
E|-4444444-2-0000000-------------22222222-|    |-00000000----|

Interlude (Mark runs around stage while Tom is playing)

Last Chorus
G|---------------------------------------|    |---------------------|    |----|
D|---------------------------------------| x2 |---------------------| x4 |----|
A|-------------------5-2222222-0---------|    |-5-2222222-0---------|    |-2~-|
E|-4444444-2-0000000-------------2222222-|    |-------------2222222-|    |----|

Carousel (probably the best Blink song ever)
ŻŻŻŻŻŻŻŻ
Intro
G|-11-11-12-14-12-11------6-6-7-9-7-6------9-9-11-12-11-9-11------7-------7---|
D|0------------------12\7-------------7/9---------------------5-5---5-5-5---5-|
A|----------------------------------------------------------------------------|
E|----------------------------------------------------------------------------|

G|-11-11-12-14-12-11------6-6-7-9-7-6------9-9-11-12-12-11-9------7---7-7-7-7-|
D|0------------------12\7-------------7/9---------------------5-5---5-5-5-5-5-|
A|----------------------------------------------------------------------------|
E|----------------------------------------------------------------------------|

G|-11-11-11-11-11-9-9-9-9-9-11-11-11-11-11-7-7-7-7-7-|
D|--0--0--0--0--0-7-7-7-7-7--9--9--9--9--9-5-5-5-5-5-| x4
A|---------------------------------------------------|
E|---------------------------------------------------|

Guitar Riff

Intro pt.2
G|-11-11-11-11-11-9-9-9-9-9-11-11-11-11-11-7-7-7-7-7-|
D|--0--0--0--0--0-7-7-7-7-7--9--9--9--9--9-5-5-5-5-5-| x2
A|---------------------------------------------------|
E|---------------------------------------------------|

G|---------------------------------------------------------------------------------|
D|---------------------------------------------------------------------------------|
A|-55555555----------------------------55555555-------------------1010101010101010-|
E|----------55555555-77777777-33333333----------55555555-77777777------------------|

Verse
G|-------------------------------------|    |---------------------------------------------|
D|-------------------------------------| x3 |---------------------------------------------|
A|-55555555----------------------------|    |-55555555-------------------1010101010101010-|
E|----------55555555-77777777-33333333-|    |----------55555555-77777777------------------|

Chorus
G|-------------------------------------|    |-----------------------------------|
D|-------------------------------------| x3 |-----------------------------------|
A|-55555555-77777777-------------------|    |-55555555-77777777-----------------|
E|-------------------55555555-33333333-|    |-------------------5--------3-33-3-|

G|---------------------------------------------------------------------------------|
D|---------------------------------------------------------------------------------|
A|-55555555----------------------------55555555-------------------1010101010101010-|
E|----------55555555-77777777-33333333----------55555555-77777777------------------|

Verse
G|-------------------------------------|    |-11-11-11-11-11-9-9-9-9-9-11-11-11-11-11-7-7-7-7-7-|
D|-------------------------------------| x2 |--0--0--0--0--0-7-7-7-7-7--9--9--9--9--9-5-5-5-5-5-| x2
A|-55555555----------------------------|    |---------------------------------------------------|
E|----------55555555-77777777-33333333-|    |---------------------------------------------------|

Interlude
G|-------------------------------------------------------------------------------------|
D|-------------------------------------------------------------------------------------|
A|-5-------------------5---------------------------55555555----------------------------|
E|------5----7----3---------5----77777777-33333333----------55555555-77777777-33333333-|

G|---------------------------------------------|
D|---------------------------------------------|
A|-55555555-------------------1010101010101010-|
E|----------55555555-77777777------------------|

Chorus
G|-------------------------------------|    |--------------------------------------|
D|-------------------------------------| x3 |-----------------------------------7~-|
A|-55555555-77777777-------------------|    |-55555555-77777777-----------------5~-|
E|-------------------55555555-33333333-|    |-------------------5--------3-33-3----|

The Country Song
ŻŻŻŻŻŻŻŻŻŻŻŻŻŻŻŻ
Intro
G|-------------------------------------------|
D|-------------------------------------------|
A|-3---------3---------3----------3-----0--2-|
E|------3---------3---------3--------3-------|

Verse
G|---------------------------|
D|---------------------------|
A|-33----33----33----3---0-2-|
E|----33----33----33---3-----|

Outro
G|-------------------------|
D|----------------------5~-|
A|-33333333-55555555----3~-|
E|-------------------------|

Dammit
ŻŻŻŻŻŻ
Intro x2
G|-------------------------------------|
D|-------------------------------------|
A|-33333333----------00000000-88888888-|
E|----------33333333-------------------|

Verse x4
G|-------------------------------------|
D|-------------------------------------|
A|-33333333----------00000000----------|
E|----------33333333----------11111111-|

Intro x2
G|-------------------------------------|
D|-------------------------------------|
A|-33333333----------00000000-88888888-|
E|----------33333333-------------------|

Verse x1
G|-------------------------------------|    G|------------------------------|
D|-------------------------------------| x1 D|------------------------------|
A|-33333333----------00000000----------|    A|-33333333----------00000000---|
E|----------33333333----------11111111-|    E|----------33333333----------1-|

G|-------------------------------------|
D|-------------------------------------| x2
A|-33333333----------00000000----------|
E|----------33333333----------11111111-|

Chorus x1
G|-------------------------------------|
D|-------------------------------------|
A|-33333333----------00000000-88888888-|
E|----------33333333-------------------|

G|------------------------------------------|
D|------------------------------------------|
A|-33333333----------00000000-8888-10101010-|
E|----------33333333------------------------|

Intro x2
G|-------------------------------------|
D|-------------------------------------|
A|-33333333----------00000000-88888888-|
E|----------33333333-------------------|

Verse x4
G|-------------------------------------|
D|-------------------------------------|
A|-33333333----------00000000----------|
E|----------33333333----------11111111-|

Chorus x1
G|-------------------------------------|
D|-------------------------------------|
A|-33333333----------00000000-88888888-|
E|----------33333333-------------------|

G|------------------------------------------|
D|------------------------------------------|
A|-33333333----------00000000-8888-10101010-|
E|----------33333333------------------------|

Interlude x2
G|-------------|
D|-------------|
A|-3~-5~-7~-8~-|
E|-------------|

Intro x4
G|-------------------------------------|
D|-------------------------------------|
A|-33333333----------00000000----------|
E|----------33333333----------11111111-|

and the last chord of the show
G|---|
D|-5-|
A|-3-|
E|---|





Comments


Popular *Blink 182* tabs & chords
Verse For Cacophony Bass Tabs
*** A Dog Tabs
All The Small Things 3 Tabs
All The Small Things Live 2 Tabs
Anthem Part Two 15 Tabs
Cacaphony Tabs
Dammit Live 1 Tabs
Dumpweed 7 Tabs
Give Me One Good Reason Tabs
Like Violence Tabs


Song lyrics



↑ Back to top | Tablatures and chords are parodies/interpretations of the original songs. You may use it for private study, scholarship, research or language learning purposes only
© 2014 AZChords.com Contact us | Privacy policy | DMCA | Add/correct tabs | Request tabs | Top 50 tabs